Song name
# A B C D E F G H I J K L M N O P Q R S T U V W X Y Z

Cult - Speed Of Light tab

I'm not really too familiar with this band, but hey... i know
a great song when I hear one. enjoy.

intro (repeats after solo break):
e---------------------------------------------------------------------|
b----------3----------------------------------------------------------|
g--------1---2-1----------5p4------------7-------1b-------------------|
d------2---------2------------5--------7------------2-0-0-2-0---------|
a----2------------------5------------7---------2--------------4-------|
D--2------------------5------------7---------2------------------------|

main riff (played by bass in verse):
e------------------------------|
b------------------------------|
g------------------------------|
d-0h2-222-0--0-2p0-2p0-2h55----|
a-0h2-222-0--0-2p0-2p0-2h55----|
D-0h2-222-0--0-2p0-2p0-2h55----|

chorus:
e---------------------------|
b---------------------------|
g-----5-----4s7-------------|
d--2--5--5--4s7-------------|
a--2--3--5--2s5-------------|
D--2-----5------------------|

solo break(rhythm) after second chorus:
e-------------------------------|
b-------------------------------|
g-------------------------------|
d--7h9999-7--7-9p7-9p7-9p000----|
a--7h9999-7--7-9p7-9p7-9p000----|
D--7h9999-7--7-9p7-9p7-9p000----|
Tap to rate this tab
 
# A B C D E F G H I J K L M N O P Q R S T U V W X Y Z