Song name
# A B C D E F G H I J K L M N O P Q R S T U V W X Y Z

Cure - Faith tab

-------------------------------------------------------------------------------
			     Faith - The Cure
-------------------------------------------------------------------------------
Tabbed by: Gallagher2006

Tuning: Standard

Being the lazy person that I am, here's the only real guitar part in "Faith" by the Cure.

It's played under the bass in the intro, and it's a Cure guitar solo :S

Easy as hell, and I just exported this from the gutiar pro tab I just made :P

   E  E  E  E  E  E  E  E   
|--------------------------|
|--------------------------|
|--R--7--7--7--7--5--5--5--|
|--------------------------|
|--------------------------|
|--------------------------|


  E  E  E  E  E  E  Q     
-------------------------|
-------------------------|
--4--4--4--4--4--5--5----|
-------------------------|
-------------------------|
-------------------------|


  E  E  E  E  E  E  E  E   
--------------------------|
--------------------------|
--L--7--7--7--7--5--5--5--|
--------------------------|
--------------------------|
--------------------------|


  E  E  E  E  E  E  Q     
-------------------------|
-------------------------|
--4--4--4--4--4--5--5----|
-------------------------|
-------------------------|
-------------------------|


  E  E  E  Q    E  E  E   
-------------------------|
-------------------------|
-----------4----4--4-----|
--7--7--7-------------5--|
-------------------------|
-------------------------|


  E  E  E  E  E  Q    E   
-------------------------|
-------------------------|
-----5--5--5--5--4-------|
--L-------------------7--|
-------------------------|
-------------------------|


  E  E  E  Q    E  E  E   
-------------------------|
-------------------------|
-----------4----4--4--4--|
--7--7--7----------------|
-------------------------|
-------------------------|


  E  E  E  Q    E  E  E   
-------------------------|
-------------------------|
-------------------------|
--5--5--5--7----7--7--7--|
-------------------------|
-------------------------|


  E  E  E  E  E  E  E  E   
--------------------------|
-----------------5--5--5--|
-----7--7--7--7-----------|
--L-----------------------|
--------------------------|
--------------------------|


  E  E  E  Q    E  E  E   
-------------------------|
--6--6--6--5----5--5--5--|
-------------------------|
-------------------------|
-------------------------|
-------------------------|


  E  E  E  E  E  E  E  E   
--------------------------|
--L--------------5--5--5--|
-----7--7--7--7-----------|
--------------------------|
--------------------------|
--------------------------|


  E  E  E  Q    E  E  E   
-------------------------|
--6--6--6--5-------------|
----------------7--5--7--|
-------------------------|
-------------------------|
-------------------------|


  E  E  E  Q    E  E  E   
-------------------------|
-------------------------|
--L--------4----4--4--4--|
-----7--7----------------|
-------------------------|
-------------------------|


  E  E  E  Q    E  E  E   
-------------------------|
-------------------------|
-------------------------|
--5--5--5--7----7--7--7--|
-------------------------|
-------------------------|


  E  E  E  Q    E  E  E   
-------------------------|
-------------------------|
-----------4----4--4--4--|
--7--7--7----------------|
-------------------------|
-------------------------|


  E  E  E  Q    E  E  E   
-------------------------|
-------------------------|
-------------------------|
--5--5--5--7----7--7--7--|
-------------------------|
-------------------------|


  E  E  E  E  E  E  E  E   
--------------------------|
-----------------5--5--5--|
-----7--7--7--7-----------|
--L-----------------------|
--------------------------|
--------------------------|


  E  E  E  Q    E  E  E   
-------------------------|
--6--6--6--5-------------|
----------------7--5--7--|
-------------------------|
-------------------------|
-------------------------|


  E  E  E  E  E  E  E  E   
--------------------------|
-----------------5--5--5--|
--L--7--7--7--7-----------|
--------------------------|
--------------------------|
--------------------------|


  E  E  E  Q    E  E  E   
-------------------------|
--6--6--6--5-------------|
----------------7--5--7--|
-------------------------|
-------------------------|
-------------------------|


  E  E  E  Q    E  E  E   
-------------------------|
-------------------------|
-----------4----4--4--4--|
--7--7--7----------------|
-------------------------|
-------------------------|


  E  E  E  Q    E  E  E   
-------------------------|
-------------------------|
-------------------------|
--5--5--5--7----7--7--7--|
-------------------------|
-------------------------|


  E  E  E  Q    E  E  E   
-------------------------|
-------------------------|
-----------4----4--4--4--|
--7--7--7----------------|
-------------------------|
-------------------------|


  E  E  E  Q    E  E  E   
-------------------------|
-------------------------|
-------------------------|
--5--5--5--7----7--7--7--|
-------------------------|
-------------------------|


  E  E  E  E  E  E  E  E   
--------------------------|
-----------------6--6--6--|
--L--7--7--7--7-----------|
--------------------------|
--------------------------|
--------------------------|


  E  E  E  E  E  E  E  E   
--------------------------|
--6--------------6--6--6--|
-----7--7--7--7-----------|
--------------------------|
--------------------------|
--------------------------|


  E  E  E  E  E  E  E  E   
--------------------------|
--6--------------6--6--6--|
-----7--7--7--7-----------|
--------------------------|
--------------------------|
--------------------------|


  E  E  E  E  E  E  E  E   
--------------------------|
--6--------------6--6--6--|
-----7--7--7--7-----------|
--------------------------|
--------------------------|
--------------------------|


  E  E  E  Q    E  E  E   
-------------------------|
--5--5--5----------------|
-----------5----5--5--5--|
-------------------------|
-------------------------|
-------------------------|


  E  E  E  Q    E  E  E   
-------------------------|
--5--5--5----------------|
-----------5----5--5--5--|
-------------------------|
-------------------------|
-------------------------|


  E  E  E  Q    E  E  E   
-------------------------|
-------------------------|
--7--7--7--4----4--4--4--|
-------------------------|
-------------------------|
-------------------------|


  E  E  E  Q    E  E  E   
-------------------------|
-------------------------|
--5--5--5--7----7--7--7--|
-------------------------|
-------------------------|
-------------------------|


  E  E  E  E  E  E  E  E   
-----5--5--5--5-----------|
-----------------8--8--8--|
--L-----------------------|
--------------------------|
--------------------------|
--------------------------|


  E  E  E  Q    E  E  E   
-------------------------|
--6--6--6--5----5--5--5--|
-------------------------|
-------------------------|
-------------------------|
-------------------------|


  E  E  E  E  E  E  E  E   
-----5--5--5--5-----------|
--L--------------8--8--8--|
--------------------------|
--------------------------|
--------------------------|
--------------------------|


  E  E  E  Q    E  E  E   
-------------------------|
--6--6--6--5----5--5--5--|
-------------------------|
-------------------------|
-------------------------|
-------------------------|


  E  E  E  Q    E  E  E   
-------------------------|
--7--7--7----------------|
-----------8----8--8--8--|
-------------------------|
-------------------------|
-------------------------|


  E  E  E  Q    E  E  E   
-------------------------|
--7--7--7----------------|
-----------8----8--8--8--|
-------------------------|
-------------------------|
-------------------------|


  E  E  E  Q    E  E  E   
-------------------------|
--6--6--6----------------|
-----------7----7--7--7--|
-------------------------|
-------------------------|
-------------------------|


  E  E  E  Q    E  E  E   
-------------------------|
--6--6--6----------------|
-----------7----7--7--7--|
-------------------------|
-------------------------|
-------------------------|
Tap to rate this tab
 
# A B C D E F G H I J K L M N O P Q R S T U V W X Y Z