Song name
# A B C D E F G H I J K L M N O P Q R S T U V W X Y Z

Cure - Grinding Halt tab

----------------------------------------------------------------------------
			     Grinding Halt - The Cure
----------------------------------------------------------------------------
Tabbed by:slf10

Intro   3x                 then...
e|-----------------------|--------------------------------------------------
B|-----------------------|--------------------------------------------------
G|-----------------------|--------------------------------------------------
D|--00-22-44-20----0-----|-00-22-44-254-2542--------------------------------
A|--------------22---222-|--------------------------------------------------
E|-----------------------|--------------------------------------------------


Verse. These chords are just repeated until the chorus
e|-2-2----------------------------------------------------------------------
B|-3-3-----3-3--------------------------------------------------------------
G|-2-2-----4-4--------------------------------------------------------------
D|---------4-4--------------------------------------------------------------
A|---------2-2--------------------------------------------------------------
E|--------------------------------------------------------------------------


Chorus
e|--------------------------------------------------------------------------
B|--------------------------------------------------------------------------
G|-66666666--8888888--10101010101010101010101010101010--66666666--88888888--
D|-77777777--9999999--11111111111111111111111111111111--77777777--99999999--
A|-77777777--9999999--11111111111111111111111111111111--77777777--99999999--
E|-55555555--7777777--9-9-9-9-9-9-9-9-9-9-9-9-9-9-9-9---55555555--77777777--


Then the intro is repeated
e|----------------------|---------------------------------------------------
B|----------------------|---------------------------------------------------
G|----------------------|---------------------------------------------------
D|-00-22-44-20----0-----|--00-22-44-254-2542--------------------------------
A|-------------22---222-|---------------------------------------------------
E|----------------------|---------------------------------------------------


Thats basically all there is to know everything else is just based around what ive tabbed here.
 Although this is not 100% accurate its close enough and you can probably get away with it
please leave comments if you think any changes to need to be made.
Tap to rate this tab
# A B C D E F G H I J K L M N O P Q R S T U V W X Y Z