Song name
# A B C D E F G H I J K L M N O P Q R S T U V W X Y Z

Current Swell - Honest Man tab

Honest Man

Riff

e----------------------------------------------------------|
b----------------------------------------------------------|
g-2-2-2-------0--------------------------------------------|
d-2-2-2---0h2---2-0-2-2-2----------------------------------|
a-0-0-0-0-----------3-3-3----------------------------------|
e----------------------------------------------------------|

General progression/chorus
e----------------------------------------------------------|
b----------------------------------------------------------|
g-2-2-2-0-0-0-------0-0-0----------------------------------|
d-2-2-2-2-2-2-0-0-0-2-2-2----------------------------------|
a-0-0-0-3-3-3-2-2-2-3-3-3----------------------------------|
e-------------3-3-3----------------------------------------|

They hit each chord about 8x before changing.

Verse
   Am     C       G       C

e----0-------0--------1-------0-----------------------------|
b----1-------1--------0-------1-----------------------------|
g-2-------0----------------0--------------------------------|
d-2-------2--------0-------2--------------------------------|
a-0-------3--------2-------3--------------------------------|
e------------------3----------------------------------------|
Tap to rate this tab
# A B C D E F G H I J K L M N O P Q R S T U V W X Y Z