Customs - The Matador tab

#############################
#Song: The Matador	         #
#Artist: The Customs	       #
#Album: Enter the Characters#
#Tab Credits: Bladerkeuh    #
#############################


Drop D tuning (because it's easier at the intro and bridge parts)

Intro

|--------------------------------------------------------------|
|--------------------------------------------------------------|
|------16-16-14-------11-9--7--------16-16-14------/16-18-14---|
|--------------------------------------------------------------|
|------14-14-12-------9--7--5--------14-14-12------/14-16-12---|
|-9-9------------9-9------------9-9------------9-9-------------|

|--------------------------------------------------------------|
|--------------------------------------------------------------|
|------16-16-14-------11-9--7--------16-16-14------/16-18-14-14|
|--------------------------------------------------------------|
|------14-14-12-------9--7--5--------14-14-12------/14-16-12-12|
|-9-9------------9-9------------9-9------------9-9-------------|


Verse

2x
|--------------------------------------------------|
|--------------------------------------------------|
|-------------------------14--16--16---------------|
|--------------------------------------------------|
|-------------------------12--14--14---------------|
|-9-9-9-9-9-9-9-9-9-9-9----------------------------|

|--------------------------------------------------|
|--------------------------------------------------|
|-------------------------14--11--11---------------|
|--------------------------------------------------|
|-------------------------12--9---9----------------|
|-9-9-9-9-9-9-9-9-9-9-9----------------------------|

|--------------------------------------------------------------|
|--------------------------------------------------------------|
|------16-16-14-------11-9--7--------16-16-14------/16-18-14---|
|--------------------------------------------------------------|
|------14-14-12-------9--7--5--------14-14-12------/14-16-12---|
|-9-9------------9-9------------9-9------------9-9-------------|

|--------------------------------------------------------------|
|--------------------------------------------------------------|
|------16-16-14-------11-9--7--------16-16-14------/16-18-14-14|
|--------------------------------------------------------------|
|------14-14-12-------9--7--5--------14-14-12------/14-16-12-12|
|-9-9------------9-9------------9-9------------9-9-------------|


2x
|--------------------------------------------------|
|--------------------------------------------------|
|-------------------------14--16--16---------------|
|--------------------------------------------------|
|-------------------------12--14--14---------------|
|-9-9-9-9-9-9-9-9-9-9-9----------------------------|

|--------------------------------------------------|
|--------------------------------------------------|
|-------------------------14--11--11---------------|
|--------------------------------------------------|
|-------------------------12--9---9----------------|
|-9-9-9-9-9-9-9-9-9-9-9----------------------------|


Chorus

Alternate pick every note 8 times
|-------------------------------------------------------------|
|-15(x8)---12(x8)---17(...)---15---15---12---19---12----------|
|-------------------------------------------------------------|
|-------------------------------------------------------------|
|-------------------------------------------------------------|
|-------------------------------------------------------------|

|---------------------/17-------------------------------------|
|-15---12---17---15---------17---19---15----------------------|
|-------------------------------------------------------------|
|-------------------------------------------------------------|
|-------------------------------------------------------------|
|-------------------------------------------------------------|


Bridge

|--------------------------------------------------------------|
|--------------------------------------------------------------|
|------16-16-14-------11-9--7--------16-16-14------/16-18-14---|
|--------------------------------------------------------------|
|------14-14-12-------9--7--5--------14-14-12------/14-16-12---|
|-9-9------------9-9------------9-9------------9-9-------------|

|--------------------------------------------------------------|
|--------------------------------------------------------------|
|------16-16-14-------11-9--7--------16-16-14------/16-18-14-14|
|--------------------------------------------------------------|
|------14-14-12-------9--7--5--------14-14-12------/14-16-12-12|
|-9-9------------9-9------------9-9------------9-9-------------|



Verse

In this verse, there is no guitar until he sings "go easy on
the talking". Then the guitar just strums a powerchord, and
hits the low E string while the chord keeps ringing.
It's something like this:

|-------------------------------------------------------------|
|-------------------------------------------------------------|
|-------------------------------------------------------------|
|--9~----------9~---x-x-x-x-9~---------9~---------------------|
|--9~----------9~---x-x-x-x-9~---------9~---------------------|
|--9~---9-9-9--9~---9-9-9-9-9~---9-9-9-9~---------------------|


Chorus

Alternate pick every note 8 times
|-------------------------------------------------------------|
|-15(x8)---12(x8)---17(...)---15---15---12---19---12----------|
|-------------------------------------------------------------|
|-------------------------------------------------------------|
|-------------------------------------------------------------|
|-------------------------------------------------------------|

|---------------------/17-------------------------------------|
|-15---12---17---15---------17---19---15----------------------|
|-------------------------------------------------------------|
|-------------------------------------------------------------|
|-------------------------------------------------------------|
|-------------------------------------------------------------|


Bridge

|--------------------------------------------------------------|
|--------------------------------------------------------------|
|------16-16-14-------11-9--7--------16-16-14------/16-18-14---|
|--------------------------------------------------------------|
|------14-14-12-------9--7--5--------14-14-12------/14-16-12---|
|-9-9------------9-9------------9-9------------9-9-------------|

|--------------------------------------------------------------|
|--------------------------------------------------------------|
|------16-16-14-------11-9--7--------16-16-14------/16-18-14-14|
|--------------------------------------------------------------|
|------14-14-12-------9--7--5--------14-14-12------/14-16-12-12|
|-9-9------------9-9------------9-9------------9-9-------------|


Mini Solo

Alternate pick every note 8 times like in the chorus part, except
the last two notes, they only must be picked 4 times each.
|------------------------------------------17----------------------|
|--/12(x8)---15(x8)---19(...)---12---/12---15-------17(x4)---19(x4)|
|------------------------------------------------------------------|
|------------------------------------------------------------------|
|------------------------------------------------------------------|
|------------------------------------------------------------------|


Chorus

Alternate pick every note 8 times
|-------------------------------------------------------------|
|-15(x8)---12(x8)---17(...)---15---15---12---19---12----------|
|-------------------------------------------------------------|
|-------------------------------------------------------------|
|-------------------------------------------------------------|
|-------------------------------------------------------------|

|---------------------/17-------------------------------------|
|-15---12---17---15---------17---19---15----------------------|
|-------------------------------------------------------------|
|-------------------------------------------------------------|
|-------------------------------------------------------------|
|-------------------------------------------------------------|


Ending

|-------------------------------------------------------------|
|-------------------------------------------------------------|
|-16-16-16-16-16-16--14--16\----------------------------------|
|-------------------------------------------------------------|
|-14-14-14-14-14-14--12--14\----------------------------------|
|-------------------------------------------------------------|


That's it! I hope You enjoy playing the song!
For questions of comments, mail me at:
	< lemmens_gert@hotmail.com>

Please rate if you have an account on UG :)
Tap to rate this tab
 
# A B C D E F G H I J K L M N O P Q R S T U V W X Y Z