Song name
# A B C D E F G H I J K L M N O P Q R S T U V W X Y Z

Cypress Hill - Trouble tab

Cypress Hill-Trouble
INTR0
E----------------------0---
B----0---------------------
G--------------0-----------
A--------------------------
E--------------------------
B--5------0-1------3-------
CHOURUS
E-----------------------
B-----------------------
G-----------------------
A--55555555-01111-3333--
E--55555555-01111-3333--
B--55555555-01111-3333--

Or on a seven string its:
INTRO
E---------------------0----
B----0---------------------
G--------------0-----------
D--------------------------
A--------------------------
E--------------------------
B--5------0-1------3-------
CHOURUS
E-----------------------
B-----------------------
G-----------------------
D-----------------------
A--55555555-01111-3333--
E--55555555-01111-3333--
B--55555555-01111-3333--
Tap to rate this tab
# A B C D E F G H I J K L M N O P Q R S T U V W X Y Z