Song name
# A B C D E F G H I J K L M N O P Q R S T U V W X Y Z

Cypress Hill - Rock Superstar tab

Song : Rock Superstar
Artist : Cypress Hill
Album : Skulls & Bones
Tabbed By: mjwk_1986@yahoo.com

Tuning: Dropped D

Intro

e  ------13--17----18----17---------------------|
b  ---15--------15----15----15------------------|
g  ---------------------------------------------|
d  ---------------------------------------------|
a  ---------------------------------------------|
D  ---------------------------------------------|

e  ---------17------20----18-17-----------------|
b  ------18-------------------------------------|
g  ---19--------19-----19-----------------------|
d  ---------------------------------------------|
a  ---------------------------------------------|
D  ---------------------------------------------|

Verse

"So You Wanna Be A Rock Superstar

e  ---------------------------------------------|
b  ---------------------------------------------|
g  ---------------------------------------------|
d  ---------------------------------------------|
a  --0--1---------------------------------------|
D  --0--1---------------------------------------|
P.M.......
Tap to rate this tab
 
# A B C D E F G H I J K L M N O P Q R S T U V W X Y Z