Song name
# A B C D E F G H I J K L M N O P Q R S T U V W X Y Z

Cypress Hill - Tequila Sunrise tab

Help us improve GuitareTab! Take a short survey!
This is the intro to tequila sunrise, just listen to the timing and it sounds pretty good. Corrections or comments: pac_83@hotmail.com



Intro: (Classical)
   Am
e|-0---|------------5-7-8-7-(7)--7h8p7--7----------------|
B|-1---|-5h6p5-5-6-8------------------10-8-6-5h6p5-(5)---|
G|-2---|------7------------------------------------------|
D|-2---|-------------------------------------------------|
A|-0---|-------------------------------------------------|
E|-----|-------------------------------------------------|

 
               Am                       Am                  
e|------------------------0---1--1-------0-|-----------12|  
B|-5h6p5----------------1--1--3---3-3--3-1-|5h6p5--------|
G|-----7-5------------2-----2-2----2--2--2-|-----7-5-----|
D|----------7-------2---------0-0--------2-|---------7/--|
A|----------------0----------------------0-|-------------|
E|--------------0--------------------------|-------------|


e|-12-12-12-12-12-12-12----------------------------------|  
B|---------------------13-12h13p12--10-12-13-6-6-5h6p5---|
G|-------------------------------------------------------|
D|-------------------------------------------------------|
A|-------------------------------------------------------|
E|-------------------------------------------------------|

   Am
e|-0---0-0-0-1---3-3-1-3-0---0-0-0-1---3-3-1-3-0---0-0-0-|
B|-1------1--3-----------1------1--3-----------1------1--|
G|-2---------2-----------2---------2-----------2---------|
D|-2---------0-----------2---------0-----------2---------|
A|-0---------------------0---------------------0---------|
E|-------------------------------------------------------|
Related for Tequila Sunrise tab