Song name
# A B C D E F G H I J K L M N O P Q R S T U V W X Y Z

Cypress Hill - Amplified tab

CYPRESS HILL- AMPLIFIED

Album- Stoned Raiders

Mucking around on guitar and figured this out

Intro/verse
------------------------------|
------------------------------|
------------------------------|
----------------2-------------|
-2-2h4-------------4h2-2h4----|
----------0-0h2---------------|


That until end of verse.. Listen to the song and you'll get it

Chorus
-----------------------------------|
-----------------------------------|
-----------------------------------|
-----------------------------------|
----2-2-4--2-2h4-------------------|
------------------0-0--------------|

Please rate my tab

Yours sencerily Bryce
Tap to rate this tab
# A B C D E F G H I J K L M N O P Q R S T U V W X Y Z