Song name
# A B C D E F G H I J K L M N O P Q R S T U V W X Y Z

Cypress Hill - Illusions tab

-----------------------------------------------------------------
Illusions - Cypress Hill
-----------------------------------------------------------------
Tabbed by: Edgar Vargas
Email: BigBiggieIE@yahoo.com

Tuning:EBGDAE

Guitar 1
e|---------------------------------------------------------------|
B|---------------------------------------------------------------|
G|---------------------------------------------------------------|
D|--7--9--9--10----7--9--9--10-----------------------------------|
A|---------------------------------------------------------------|
E|---------------------------------------------------------------|

e|---------------------------------------------------------------|
B|---------------------------------------------------------------|
G|---------------------------------------------------------------|
D|--7--9--10--9----7--9--10--9-----------------------------------|
A|---------------------------------------------------------------|
E|---------------------------------------------------------------|
play this throughout the whole song

Guitar 2
e|---------------------------------------------------------------|
B|---------------------------------------------------------------|
G|--6----9--7--6----9--7--6--------------------------------------|
D|---------------------------------------------------------------|
A|---------------------------------------------------------------|
E|---------------------------------------------------------------|
only play the 6 in the beginning of the song

e|---------------------------------------------------------------|
B|---------------------------------------------------------------|
G|--9--7--6h7----------------------------------------------------|
D|---------------------------------------------------------------|
A|---------------------------------------------------------------|
E|---------------------------------------------------------------|
play this throughout the whole song

email me if you think its wrong because i just started tabbing (hope this helped)
Tap to rate this tab
# A B C D E F G H I J K L M N O P Q R S T U V W X Y Z