Song name
# A B C D E F G H I J K L M N O P Q R S T U V W X Y Z

Cypress Hill - Illusion tab

Cypress hill,illusion.
Tabbed by Denis,denjam@mail.ru.
  
Guitar 1
E-----------------------------------
B-----------------------------------
G-------------------0---0---0---0---
D--3---3---3---3------4---2---4---5-
A----7---5---7---7------------------
E-----------------------------------
Guitar 2(SOLO)
E-----------------------------------
B-6--10-6-5---11-10-5--11-10-5-6----
G-----------------------------------
D-----------------------------------
A-----------------------------------
E-----------------------------------

I can be wrong, but i think try.
Thanks!!!
Yoin it. 
:: Ultimate Guitar Archive :: 
http://www.ultimate-guitar.com 

Tap to rate this tab
# A B C D E F G H I J K L M N O P Q R S T U V W X Y Z