Song name
# A B C D E F G H I J K L M N O P Q R S T U V W X Y Z

D4 - What I Want tab

Intro

P.M. ----------------------------------------------------------(whole intro)
|----------------------------------------------------------------------------|
|----------------------------------------------------------------------------|
|----------------------------------------------------------------------------|
|-9-9-9-9------x-12-12-12-12------x-5-5-5-5------14-14-14-14-----------------|
|-9-9-9-9--x4--x-12-12-12-12--x4--x-5-5-5-5--x4--14-14-14-14--x4-------------|
|-7-7-7-7------x-10-10-10-10------x-3-3-3-3------12-12-12-12-----------------|


|----------------------------------------------------------------------------|
|----------------------------------------------------------------------------|
|----------------------------------------------------------------------------|
|-9-9-9-9------x-12-12-12-12------x-5-5-5-5------14-14-14-14-----------------|
|-9-9-9-9--x4--x-12-12-12-12--x4--x-5-5-5-5--x4--14-14-14-14--x4-------------|
|-7-7-7-7------x-10-10-10-10------x-3-3-3-3------12-12-12-12-----------------|



This is the main riff, very catchy. Buy the album The D4 rock!!!
They are awsome live aswell!
Tap to rate this tab
 
# A B C D E F G H I J K L M N O P Q R S T U V W X Y Z