Song name
# A B C D E F G H I J K L M N O P Q R S T U V W X Y Z

Dananananaykroyd - Some Dresses tab

                     Dananananaykroyd - SOME DRESSES

Informal site: http://dananananaykroyd.co.uk/

Ok i know this isn't all right, it's just a guide and im hoping some pro will come 
and sort it out.

hard to get this song on internet, listen to a recording here

http://hypem.com/artist/dananananaykroyd

Tabbed by:mattsem

Email:mattsem@gmail.com



e|--------------------------------------------------------------------|
B|-----------------------------------------------7-x-x----------------|
G|-------------------------------------------------x-x--9 x-9---------|
D|-------4-x-5--7-x-5---5-x-----7-----------4------x-x--7-x-7---------|
A|-------5-x-7--9-x-7---7-x--7s9--9s7-----5---5----x-x--9-x-9---------|
E|--------------------------------------------------------------------|

                                      im pretty sure this slide bit's wrong
e|--------------------------------------------------------------------|
B|-----------------------------------------777777---------------------|
G|-----------------------------------------777777---------------------|
D|-----4-x-5--7-x-5---5-x-----9-9-7--------444444-------5----7--------|
A|-----5-x-7--9-x-7---7-x-----------10-----555555---5s7--7s9--9s7-----|
E|--------------------------------------------------------------------|


e|--------------------------------------------------------------------|
B|-----------------------------------------------7-x-x----------------|
G|-------------------------------------------------x-x--9 x-9---------|
D|-------4-x-5--7-x-5---5-x-----7-----------4------x-x--7-x-7---------|
A|-------5-x-7--9-x-7---7-x--7s9--9s7-----5---5----x-x--9-x-9---------|
E|--------------------------------------------------------------------|

                                           not sure about this chord either
e|--------------------------------------------------------------------|
B|-----------------------------------------777777777777---------------|
G|-----------------------------------------777777777777---------------|
D|-----4-x-5--7-x-5---5-x-----9-9-7--------444444444444---------------|
A|-----5-x-7--9-x-7---7-x-----------10-----555555555555---------------|
E|--------------------------------------------------------------------|


Overall the whole thing's a bit sketchy, but it fits with the music well enough to play along to.

any qs just email ^

cheera

mattsem


|s = slide
|x = Mute note
===============================================================================
Tap to rate this tab
# A B C D E F G H I J K L M N O P Q R S T U V W X Y Z