Song name
# A B C D E F G H I J K L M N O P Q R S T U V W X Y Z

Dananananaykroyd - Good Time tab

Tabbed by JaaaayDeeee email:jdgilbert@ntlworld.com
intro/riff

E|----------------------------|------------------------|
B|------------------2-2-2/5p0-|---------0h5/7-0h5/10---|
G|--------2-2-2-1-------------|------------------------|
D|-2-2-2---------2-----------6|-6-6-4-2----------------|
A|-2-2-2-2--------2-----------|-6-6-4-2----------------|
E|-0-0-0----------------------|-4-4-2-0----------------|

E|-----------------------------|------------------------|
B|-------------------2-2-2/5p0-|------------------------|
G|--------2-2-2-1--------------|------------------------|
D|----------------2-----------6|-6-6-4-6-6-7-8-7-6-2----|
A|------2----------2-----------|-6-6-4-6-6-7-8-7-6-2----|
E|-----------------------------|-4-4-2-4-4-5-6-5-4-0----|

and you pretty much just repeat this until chorus (except 1st 3 chords)
Chorus I'm not so sure:
these chords
E|-----------|
B|-----------|
G|-6---------|
D|-6-----2---|
A|-4-----2---|
E|-------0---|

E|----------------|
B|---------9hp10--|
G|-9-11-13--------|
D|----------------|
A|-7-9--11--------|
E|----------------|

E|-----------|
B|-----------|
G|-6---------|
D|-6-----2---|
A|-4-----2---|
E|-------0---|

E|----------------|
B|---------12hp14-|
G|-9-11-13--------|
D|----------------|
A|-7-9--11--------|
E|----------------|

repeat

"temperature rises" bit
E|----------------|
B|----------------|
G|-9-6-4----------|
D|-9-6-4-6--------|
A|-7-4-2-6--------|
E|-------4--------|

E|----------------|
B|----------------|
G|-9-6-4----9-13--|
D|-9-6-4-6--9-13--|
A|-7-4-2-6--7-11--|
E|-------4--------|

Still working on it it's probably no 100% dananananaykroyd's never that simple


Tap to rate this tab
# A B C D E F G H I J K L M N O P Q R S T U V W X Y Z