Song name
# A B C D E F G H I J K L M N O P Q R S T U V W X Y Z

Darden Smith - Hunger tab

Hunger by fasptich
Tabbed by : king Aragones the great

Legend:
* >vibrato
S >slide
. >pm
lm/_ >rakenrol

intro:

GT. 1
      . . . . . . . . . . . . . . . . . .
e|-----6-6-6-------6-6-6-------6-6-6----------|  mga tol…
B|-----------6-6-6-------6-6-6------6-6-6-----|  bago matapos ung last
G|--------------------------------------------|  6 intro agad GT. 2
D|--------------------------------------------|  add ym >>sn_how_king
A|--------------------------------------------|
E|--------------------------------------------|

GT. 2
e|-----11*-10-----------------------|
B|--------------8--11---------------|
G|---------------------8--10-10s12*-|
D|----------------------------------|
A|----------------------------------|
E|----------------------------------|

e|-----11*-10------------------------------|
B|--------------8—11s13s11*----------------|
G|---------------------8--10-10s12*---10*--|
D|-----------------------------------------|
A|-----------------------------------------|
E|-----------------------------------------|

Mabuhay ang mga Cebuano!! Kahit taga marikina ako.
Dapat I-declare na land of talents ang buong Visayas!!
Jalos lahat ng kakaibang music d2 nangagagaling.. point click kill, faspitch, 
at xiempre urbandub.

Add po ym sn_how_king
Add din po frendster sn_how_king@yahoo.com
Or king_Aragones@yahoo.com or better yet snhowking@gmail.com
Xiangaps.. binabati ko ang lahat ng aking kapatiran.. mark berso.. skewki.. si g3 abe 
Kenneth.. testado.. parilla.. mr calica.. ate..at si nh. Tnx!
Tap to rate this tab
# A B C D E F G H I J K L M N O P Q R S T U V W X Y Z