Song name
# A B C D E F G H I J K L M N O P Q R S T U V W X Y Z

Darius Rucker - Wagon Wheel tab

This is my take on Wagon Wheel.
This tab is deceptively simple. The rhythm can get sticky if you don't watch the ones 
and twos (especially with the hammer-ons in the beginning).

  Headed down south to the land of the Pines
e|------------------------------------|
B|-3-----------3---------3-------3----|
G|-----0---0h2---2---0h2---2---4---4--|
D|-------0----------------------------|
A|------------------------------------|
E|-2h3-------------3---------3--------|

  Thumbin' my way into North Carolina
e|------------------------------------|
B|-----------3------------------------|
G|-------0-----0---0-------0---0------|
D|-----0---0-----0-----0-2---2--------|
A|-0-2---------------3----------------|
E|------------------------------------|

  Starin' up the road and I pray to god I see head-lights
e|----------------------------------------------------|
B|---------3---------------3--------------------------|
G|-----0-----0---0-2---2-4---4-------0---0---------0--|
D|-------------------------------0-2---2-------0-2----|
A|-----------------------------3-----------2-3--------|
E|-0-3---3-----3-----3--------------------------------|

I like to finger-pick the verses and strum the chorus

G                     D
Rock me, mama, like a wagon wheel
Em                 C
Rock me, mama, any way you feel
G      D          C
Hey... hey, mama, rock me

That's about it. Have fun with it.
Tap to rate this tab
# A B C D E F G H I J K L M N O P Q R S T U V W X Y Z