Song name
# A B C D E F G H I J K L M N O P Q R S T U V W X Y Z

Darkness - Everybody Have A Good Time tab

-----------------------------------------------------------------------------------
                    Everybody Have a Good Time - The Darkness
-----------------------------------------------------------------------------------

Tabbed by: Federico Loreggian
Tuning: E B G D A E 
Maybe there are some mistakes on the solo, feel free to send me a correction.

Intro:

E|------------3---------|       E|--2-2-3-2---3---------|
B|--2-2-2-2---3---------|       B|--3-3-3-3---3---------|
G|--2-2-2-2-------------|       G|--2-2-2-2-------------|
D|--2-2-4-2----------2--|  X2   D|-------------------2--|  X2
A|-----------------2----|       A|-----------------2----|
E|------------3--2------|       E|------------3--2------|

"Anticipation, too much to pay, maybe Iím crazy, but thereís something in the air"

E|------------3---------|------------3---------|
B|--2-2-2-2---3---------|--2-2-2-2---3---------| 
G|--2-2-2-2-------------|--2-2-2-2-------------|
D|--2-2-4-2----------2--|--2-2-4-2----------2--|
A|-----------------2----|-----------------2----|
E|------------3--2------|------------3--2------|

"Thereís something in the air, ah"

E|--2-2-3-2---3---------|--2-2-3-2---3---------|
B|--3-3-3-3---3---------|--3-3-3-3---3---------|
G|--2-2-2-2-------------|--2-2-2-2-------------|
D|-------------------2--|-------------------2--|
A|-----------------2----|-----------------2----|
E|------------3--2------|------------3--2------|

"Come on people tell me how you feel, you want a good time, well you got yourself a deal"

E|------------3---------|------------3---------|
B|--2-2-2-2---3---------|--2-2-2-2---3---------| 
G|--2-2-2-2-------------|--2-2-2-2-------------|
D|--2-2-4-2----------2--|--2-2-4-2----------2--|
A|-----------------2----|-----------------2----|
E|------------3--2------|------------3--2------|

"Oh yeah, you got yourself a deal"

E|--2-2-3-2---3---------|--2-2-3-2---3---------|
B|--3-3-3-3---3---------|--3-3-3-3---3---------|
G|--2-2-2-2-------------|--2-2-2-2-------------|
D|-------------------2--|-------------------2--|
A|-----------------2----|-----------------2----|
E|------------3--2------|------------3--2------|

"Itís time to make, a brand new start, take off your thinking, gotta listen to your heart"

E|------------------------------------|
B|--2-------2-------2-------2--2-2-2--|
G|--2-------2-------2-------2--2-2-2--|
D|--2-------4-------5-------2--2-2-2--|
A|------3-4-----3-4-----3-4-----------|
E|------------------------------------|

Chorus: 

E|--3---------3-2----------------------------|--3---------3-2----------------------------|
B|--3---------3-3--2-2-2-2---2-----2-2-2--2--|--3---------3-3--2-2-2-2---2-2-2-2-2-2--2--|
G|--------------2--2-2-2-2---2-----2-2-2--2--|--------------2--2-2-2-2---2-2-2-2-2-2--2--|
D|-----------------2-2-4-2---4-----2-4-2--2--|-----------------2-2-4-2---4-2-2-2-4-2--2--|
A|-------2---------------------3-4-----------|-------2-----------------------------------|
E|--3--2---2--3------------------------------|--3--2---2--3------------------------------|

E|--2--2--3--3--3--3----------------------------|
B|--3--3--3--3--3--3--2-2-2-2---2-----2-2-2--2--|
G|--2--2--2--2--------2-2-2-2---2-----2-2-2--2--|
D|--------------------2-2-4-2---4-----2-4-2--2--|
A|--------------------------------3-4-----------|
E|--------------3--3----------------------------|

"For tonight.....may be our last, alright"

E|---------------3----------------------|
B|------2--------3-------2---2-2-2-2-2--|
G|------2----------------2---2-2-2-2-2--|
D|------2----------------2---2-2-2-2-2--|
A|--------------------------------------|
E|--3-2----------3----------------------|

"Good thing youíre cool, well Iím mister sure, come on baby, leave your ego at the door"

E|--2--------------3---------|------------3---------|
B|--3-2--2-2-2-2---3---------|--2-2-2-2---3---------|  
G|--2-2--2-2-2-2-------------|--2-2-2-2-------------|
D|----2--2-2-4-2----------2--|--2-2-4-2----------2--|
A|----------------------2----|-----------------2----|
E|-----------------3--2------|------------3--2------|

"Cause you donít need it anymore, whoa"

E|--2-2-3-2---3---------|--2-2-3-2---3---------|
B|--3-3-3-3---3---------|--3-3-3-3---3---------|
G|--2-2-2-2-------------|--2-2-2-2-------------|
D|-------------------2--|-------------------2--|
A|-----------------2----|-----------------2----|
E|------------3--2------|------------3--2------|

"Where is all this fighting getting us? Where is the fire baby, whatís the fuss?"

E|------------------------------------|
B|--2-------2-------2-------2--2-2-2--|
G|--2-------2-------2-------2--2-2-2--|
D|--2-------4-------5-------2--2-2-2--|
A|------3-4-----3-4-----3-4-----------|
E|------------------------------------|

Chorus: 

E|--3---------3-2----------------------------|--3---------3-2----------------------------|
B|--3---------3-3--2-2-2-2---2-----2-2-2--2--|--3---------3-3--2-2-2-2---2-2-2-2-2-2--2--|
G|--------------2--2-2-2-2---2-----2-2-2--2--|--------------2--2-2-2-2---2-2-2-2-2-2--2--|
D|-----------------2-2-4-2---4-----2-4-2--2--|-----------------2-2-4-2---4-2-2-2-4-2--2--|
A|-------2---------------------3-4-----------|-------2-----------------------------------|
E|--3--2---2--3------------------------------|--3--2---2--3------------------------------|

E|--2--2--3--3--3--3----------------------------|
B|--3--3--3--3--3--3--2-2-2-2---2-----2-2-2--2--|
G|--2--2--2--2--------2-2-2-2---2-----2-2-2--2--|
D|--------------------2-2-4-2---4-----2-4-2--2--|
A|--------------------------------3-4-----------|
E|--------------3--3----------------------------|

"For tonight.....may be our last"

E|---------------3----------------------|
B|------2--------3-------2---2-2-2-2-2--|
G|------2----------------2---2-2-2-2-2--|
D|------2----------------2---2-2-2-2-2--|
A|--------------------------------------|
E|--3-2----------3----------------------|

"Yeah tonight may be our last"

E|---------------3----------------------|
B|------2--------3-------2---2-2-2-2-2--|
G|------2----------------2---2-2-2-2-2--|
D|------2----------------2---2-2-2-2-2--|
A|--------------------------------------|
E|--3-2----------3----------------------|

#1 Guitar Solo:

E|-----------------------------------------------------------------------------------------------------|
B|----------------------------5br-3------------------------------------------------5-7-8--8--8-7-5---5-|
G|---------------------2-4b---------4br-2-2--------------------------------2b--\---5-5-5--5--5-5-5---5-|
D|---------------2h4-2-------------------------4b-4b-2-4-6--------2---2-2--------------------------7---|
A|-----------2-4-------------------------------------------5----5---5----------------------------------|
E|--2b---3-5-------------------------------------------------------------------------------------------|

E|---------------------------------------------------------15-14-12------------------|
B|--X-X-5-7-8--8--8-7-5------------12b-10----10--------12b----------14-12----12------|
G|--X-X-5-5-5--5--5-5-5--7\12-12b---------12----10b-----------------------14----13b--|
D|-----------------------------------------------------------------------------------|
A|-----------------------------------------------------------------------------------|
E|-----------------------------------------------------------------------------------|

"Where fools rush in, where eagles dare, you will find us, itís already there,
we live the same dream, every night, having a good time till the morning light"

E|------------------------------------|
B|--2-------2-------2-------2--2-2-2--|
G|--2-------2-------2-------2--2-2-2--|
D|--2-------4-------5-------2--2-2-2--|  X2
A|------3-4-----3-4-----3-4-----------|
E|------------------------------------|

Chorus: 

E|--3---------3-2----------------------------|--3---------3-2----------------------------|
B|--3---------3-3--2-2-2-2---2-----2-2-2--2--|--3---------3-3--2-2-2-2---2-2-2-2-2-2--2--|
G|--------------2--2-2-2-2---2-----2-2-2--2--|--------------2--2-2-2-2---2-2-2-2-2-2--2--|
D|-----------------2-2-4-2---4-----2-4-2--2--|-----------------2-2-4-2---4-2-2-2-4-2--2--|
A|-------2---------------------3-4-----------|-------2-----------------------------------|
E|--3--2---2--3------------------------------|--3--2---2--3------------------------------|

E|--2--2--3--3--3--3----------------------------|
B|--3--3--3--3--3--3--2-2-2-2---2-----2-2-2--2--|
G|--2--2--2--2--------2-2-2-2---2-----2-2-2--2--|
D|--------------------2-2-4-2---4-----2-4-2--2--|
A|--------------------------------3-4-----------|
E|--------------3--3----------------------------|

"For tonight.....may be our last"

E|---------------3----------------------|
B|------2--------3-------2---2-2-2-2-2--|
G|------2----------------2---2-2-2-2-2--|
D|------2----------------2---2-2-2-2-2--|
A|--------------------------------------|
E|--3-2----------3----------------------|

"Yeah tonight may be our last"

E|---------------3----------------------|
B|------2--------3-------2---2-2-2-2-2--|
G|------2----------------2---2-2-2-2-2--|
D|------2----------------2---2-2-2-2-2--|
A|--------------------------------------|
E|--3-2----------3----------------------|

Breakdown

E|----------------------------------|
B|------2-------2--2--X-X--2--X--2--|
G|------2-------2--2--X-X--2--X--2--|
D|------4-------2--2--X-X--2--X--2--|  X7
A|--3-4----3-4----------------------|
E|----------------------------------|

#2 Guitar Solo / Outro: 

E|-----------------------------------------------------------------------------------------------------|
B|----------------------------5br-3------------------------------------------------5-7-8--8--8-7-5---5-|
G|---------------------2-4b---------4br-2-2--------------------------------2b--\---5-5-5--5--5-5-5---5-|
D|---------------2h4-2-------------------------4b-4b-2-4-6--------2---2-2--------------------------7---|
A|-----------2-4-------------------------------------------5----5---5----------------------------------|
E|--2b---3-5-------------------------------------------------------------------------------------------|

E|---------------------------|
B|--X-X-5-7-8--8--8-7-5---5--|
G|--X-X-5-5-5--5--5-5-5---5--|
D|----------------------7----|  X5
A|---------------------------|
E|---------------------------|
Tap to rate this tab
# A B C D E F G H I J K L M N O P Q R S T U V W X Y Z