Song name
# A B C D E F G H I J K L M N O P Q R S T U V W X Y Z

Darkness - Knockers tab

Help us improve GuitareTab! Take a short survey!
hi, dis is my first time tabbin a song so if theres a few mistakes sorri!

tuning:Ebgdae

Intro ( played 4 times )

E--------------------|
b--------------------|
g--------------------|
d--------------------|
a--------------------|
e----0-0-0-0-0-0-0-0-|

Verse ( GUITAR 1 )  ONLI GUITAR 1 PLAYS THE FIRST VERSE, BOTH GUITARS IN VERSE 2

E--------------------------------------------------------------------|
b--------------------------------------------------------------------|
g--------------------------------------------------------------------|
d--------------------------------------------------------------------|
a------------------------------------0-0-0-0-0-0-0-0-0-0-0-0-0-0-0-0-|
e----0-0-0-0-0-0-0-0-0-0-0-0-0-0-0-0---------------------------------|

VERSE ( GUITAR 2 )

E------------------|
b------------------|
g-------7-6-2------|
d----2--7-6-2------|     ( played twice )
a----2--5-4-0------|
e----0-------------|

Bridge

e--------------------------|
b--------------------------|
g------1---4---1-2-2-2-2-4-|
d----2---2---2---2-2-2-2-4-|
a----------------0-0-0-0-2-|
e--------------------------|

Chorus

e-------------------------------------------------|
b-------------------------------------------------|
g----------------------------7-6-2----7-7-7-7-2-2-|
d----2-2-2-2-2-2-2-2-2-2-2-2-7-6-2----7-7-7-7-2-2-|  (played twice)
a----2-2-2-2-2-2-2-2-2-2-2-2-5-4-0----5-5-5-5-0-0-|
e----0-0-0-0-0-0-0-0-0-0-0-0----------------------|

ORDER OF SONG:

INTRO
VERSE
BRIDGE
CHORUS
VERSE
BRIDGE
CHORUS
SOLO ( I HAVENT DUN THAT )
CHORUS
CHORUS
Related for Knockers tab