Guitaretab - guitar tabs
Song name
# A B C D E F G H I J K L M N O P Q R S T U V W X Y Z

Darkthrone - Raised On Rock tab

Band: Darkthrone
Title: Raised on Rock
Album: F.O.A.D
D=dip B=Bend

Riff1
|-----------------|
|-----------------|
|-----------------|
|-7----10-9--5-6--|
|-5----8--7--3-4--|
|-----------------|

Riff2
|-----------------------------------------------------------|
|-----------------------------------------------------------|
|-----------------------------------------------------------|
|-------------------------9---------------------------------|
|-7--7--7--7-5-7--9--10---7-------7--7--7--7-5-7--9--10---6-|
|-5--5--5--5-3-5--7--8------------5--5--5--5-3-5--7--8----4-|

Riff3
|---------------------------------|
|---------------------------------|
|---------------------------------|
|---------------------------------|
|-7--7--7----5--5--5----2--2--2---|
|-5--5--5----3--3--3----0--0--0---|

Solo1
|----------------------------------------------------------------------|
|----------------------------------------------------------------------|
|-7------9----10----9----7----9----7----7--7-7-2--2-2-0--0-0-2--2-2-2D-|
|----------------------------------------------------------------------|
|----------------------------------------------------------------------|
|----------------------------------------------------------------------|
[ Tab from: http://www.guitaretab.com/d/darkthrone/113381.html ]
|-------------------------|
|-------------------------|
|-12---14--14--17B----20B-|
|-------------------------|
|-------------------------|
|-------------------------|

Solo2
|-------------------------------------------------|
|-----------------------------17--17--17--17--17B-|
|-14--14--14----16--16--16------------------------|
|-------------------------------------------------|
|-------------------------------------------------|
|-------------------------------------------------|

And the song goes like this:
Drum intro
Riff1      2x
Riff1      4x here comes solo1
Riff2      4x
Riff1      3x the 4th is break with chord D
Riff2      2x
Riff1      3x the 4th is break with chord D
Riff3      2x
Riff3      6x Here comes solo2 repeated 6x
End...

Lyrics:  You have nothing in common with me
you think old-school is 1993
ha! I've been a thrasher since '84
almost nothing sounds true anymore

I've made my own code
sold my soul to Manilla Road
modern metal I don't give a fuck
UH! I was raised on rock

It went plastic in '94
oh my god you're such a bore
if you don't understand what I mean
fucking listen to Venom's "Acid Queen"

I've made my own code
sold my soul to Manilla Road
modern metal I don't give a fuck
UH! I was raised on rock

[Solo]

raised on rock!

That's all folks...
Related for Raised On Rock tab
Raised On Rock chords by Darkthrone