Song name
# A B C D E F G H I J K L M N O P Q R S T U V W X Y Z

Darkthrone - Hans Siste Vinter tab

Artist: Dark Throne
Title: Hans Siste Vinter

Tabulature by Wooniak



RIFF 1
E-|--------------------------------------------------------------|
B-|--------------------------------------------------------------|
G-|--------------------------------------------------------------|
D-|----------3-3-3-3-4-4-4-4-3-----------------------------------|
A-|--1-1-1-1-----------------------------4-4-4-4-3-3-3-3-4-6-----|
E-|----------------------------1-2-2-2-2-------------------------|
 

RIFF 2 3x
E-|----------------------------------|
B-|----------------------------------|
G-|----------------------------------|
D-|----------1-1-1-1-----------------|
A-|------------------4-4-4-4-3-------|
E-|--2-2-2-2-------------------4-----|


RIFF 3
E-|----------------------------------|
B-|----------------------------------|
G-|----------------------------------|
D-|----------1-1-1-1-----------3-----|
A-|------------------4-4-4-4-3-------|
E-|--2-2-2-2-------------------------|



riff1 10x  0.00-1.09
riff2 3x   1.10-1.19
riff3 1x   1.20-1.23
riff1 4x   1.24-1.51
riff2 11x  1.52-2.31
riff3 1x   2.32-2.35
riff2 3x   2.36-2.45
riff3 1x   2.46-2.49
riff1 16x  2.50-4.48   14th,15th,16th time- without drums
Tap to rate this tab
# A B C D E F G H I J K L M N O P Q R S T U V W X Y Z