Song name
# A B C D E F G H I J K L M N O P Q R S T U V W X Y Z

Darwin Deez - Up In The Clouds tab

-------------------------------------------------------------------------------
			     UP IN THE CLOUDS - Darwin Deez
-------------------------------------------------------------------------------
Tabbed by:olliebrooks10
Email:ollieb0@hotmail.co.uk

Seen a few tabs in standard tuning but this is how darwin tunes: No E strings
A tuned down to F#, normal D, G tuned up to G#, normal B

Low to high: F# D G# B

Guitar 1

Intro/Chorus
                        x2
 e|-----------------------||------------------------|------------------------|
 B--9-9--9------9-9--9----||-4-4--4-----4-4--4------|-4-4--4----4-4--4-------|
G#|-8-8--8------8-8--8----||-3-3--3-----3-3--3------|-3-3--3----3-3--3---7--5|
 D|-8-8--8------9-9--9----||-4-4--4-----4-4--4----16|-4-4--4----4-4--4-------|
F#|-0-0--0------7-7--7----||-0-0--0-----2-2--2----14|-0-0--0----2-2--2---9--7|
 E|-----------------------||------------------------|------------------------|

 Pre Chorus

 e|--------------|----------------|--------------|-----------------|
 B|--------------|----------------|--------------|-----------------|
G#|-12-12--12----|--12-12--12-----|--15-15--15---|--14-14--14------|
 D|--9--9---9----|---9--9---9-----|--13-13--13---|--11-11--11------|
F#|-10-10--10----|--10-10--10-----|--14-14--14---|--12-12--12------|
 E|--------------|----------------|--------------|-----------------|

Guitar 2

Pre Chorus

 e|-------------------|----------------------|                        - B|-------------------|--|
G#|-------------------|-------------------------------------------------------------------------|
 D|---------11-13-11--|------------11-13-11-----------------------------------------------------|
F#|14-----------------|14-12-14-----------------------------------------------------------------|
 E|-------------------|-------------------------------------------------------------------------|

Chorus

 e-------------|------------|
 B|16-16-16-16-|14-14-14-14-|
G#|15-15-15-15-|15-15-15-15-|
 D|------------|------------|
F#|------------|------------|
 E-------------|------------|

The bridge is basically just the pre chorus. You should be able to work it out

Should be pretty correct. If you find an error email me/comment


************************************

| /   slide up
| \   slide down
| h   hammer-on
| p   pull-off
| ~   vibrato
| +   harmonic
| x   Mute note
| b   Bend
| pb  Pre-bend
| br  Bend release
| pbr Pre-bend release
| brb Bend release bend

************************************
Tap to rate this tab
 
# A B C D E F G H I J K L M N O P Q R S T U V W X Y Z