Song name
# A B C D E F G H I J K L M N O P Q R S T U V W X Y Z

Darwin Deez - Lights On chords

Highlighted       Show chord diagrams
The song uses a cheap dirty sounding effect, for example; A bad amp or cheap 
guitar. Please comment, enjoy the tab.

( x ) Pam Mute
( ~ ) Let ring



         F       G        A       Bb
e------------------------------------------|
B------------------------------------------|
G------10~~~x------------------------------|
D------10~~~x--5-5-5--x-7-7-7--x-8-8-8--x--|  Repeat 7x
A------8~~~~x--5-5-5--x-7-7-7--x-8-8-8--x--|
E------x----x--3-3-3--x-5-5-5--x-6-6-6--x--|

Then
         F      Bb    C
e-----------------------------|
B-----------------------------|
G------10~~~x-----------------|
D------10~~~x--8-8-8--10------|  
A------8~~~~x--8-8-8--10------|
E------x----x--6-6-6--8-------|



[Chorus]
          
          C                G                 Bb               F
|-----------------------------------------------------------------------|
|---3-3-3-3-3-3-3-3-------------------1-1-1-1-1-1-1-1-------------------|
|---5-5-5-5-5-5-5-5--3-3-3-3-3-3-3-3--3-3-3-3-3-3-3-3--1-1-1-1-1-1-1-1--|
|---5-5-5-5-5-5-5-5--5-5-5-5-5-5-5-5--3-3-3-3-3-3-3-3--3-3-3-3-3-3-3-3--|
|---3-3-3-3-3-3-3-3--5-5-5-5-5-5-5-5--1-1-1-1-1-1-1-1--3-3-3-3-3-3-3-3--|
|--------------------3-3-3-3-3-3-3-3-------------------1-1-1-1-1-1-1-1--|

                                  Repeat X2


That is all that is used for the song
Tap to rate this tab
# A B C D E F G H I J K L M N O P Q R S T U V W X Y Z