Guitaretab - guitar tabs
Song name
# A B C D E F G H I J K L M N O P Q R S T U V W X Y Z

Dashboard Confessional - Remember To Breathe tab

Hey all, I haven't seen any tabs that give the correct second guitar part for
the unplugged version of remember to breathe. I tabbed the main parts, but the
rest of it can just be add libbed with the same general notes. Oh yeah, as with
most Dashboard stuff, it sounds better with heavier strings.

Oh yeah, tuning is  step flat

Guitar 1 just repeats this (rhythm not shown)
Eb|---0----0----0----0--|--0----0----0----0---
Bb|---0----0----0----0--|--0----0----0----0---
Gb|---4----4----4----4--|--4----4----4----4---
Db|---2----2----2----2--|--2----2----2----2---
Ab|---4----0----X----0--|--4----0----X----2---
Eb|---0----0----4----0--|--0----0----4----0---

Guitar 2(Begin after first guitar plays 1 bar)
eb|-------------9-0-------------------0-----0-
Bb|--------------------------- ---------------
Gb|---8-9-8---8-------8-9-9h11-9----8---8-----
Ab|-9-------9-------9-------------9-------9---
Db|-------------------------------------------
Eb|-------------------------------------------

[ Tab from: http://www.guitaretab.com/d/dashboard-confessional/30636.html ]
eb|---9--------9--------9-7---11-9-(7)-~------
Bb|------------------------------------~------
Gb|-8---8----8---9----8-----9----------~--8-6-
Db|--------9---------------------------~------
Ab|------------------------------------~------
Eb|------------------------------------~------


eb|------------------------9-7---------~------
Bb|---8-9-8-11-8-9-8-------------------~------
Gb|-9--------------------------8---8-9-~--8-9-
Db|----------------------9-------9-----~------
Ab|------------------------------------~------
Eb|------------------------------------~------

Piano transcribed for guitar
eb|-------------------------------------------
Gb|-------------------------------------------
Bb|---8-9---8-9-11-9--8-----------------------
Db|-9-----9-------------9---------------------
Ab|-------------------------------------------
Eb|-------------------------------------------


End with
eb|----------
Gb|----------
Bb|----------
Db|----------
Ab|----------
Eb|--4-5-4-0-

The rest is all improvised, just use those same notes and go nuts. Oh, and here
are the lyrics, cuz I hate it when people don't include the lyrics

She fixes her lips they,
Always look perfect

Never a smudge line
Never too
Much

I try on my blue shirt
She told me she liked it... once

She wonders what I'll wear
She knows just what she'll wear
She always wears blue

Some sneakers or flip flops
I'm starting to panic.... wait, wait
Remember she asked you
Remember to....Breathe

And everything
Will be okay
All right...Ok
Related for Remember To Breathe tab