Song name
# A B C D E F G H I J K L M N O P Q R S T U V W X Y Z

Dashboard Confessional - As Lovers Go tab

Tabbed by :kronze32
Artist/Band: Dashboard Confessional
Album: Sherk 2 (last song on the credits)

Anything you want or suggestions just mail on (angelo_dc07@hotmail.com)
Im open for suggestions and more updating..
plz rate my tab :D
and comment also


Verse

|--------------------------------------------|
|--------------------------------------------|
|-5-5-5-5-5------------------------5-5-5-5-5-|  4x
|-5-5-5-5-5--7-7-7-7-7--3-3-3-3-3--5-5-5-5-5-|
|-3-3-3-3-3--7-7-7-7-7--3-3-3-3-3--3-3-3-3-3-|
|------------5-5-5-5-5--1-1-1-1-1------------|

Refrain

|-----------------------------------------------------------------|
|-----------------------------------------------------------------|
|---------------------------------------------7-7-7-7-7-7-7-7-7-7-|
|-3-3-3-3-3-3-3-3-3-3-3--7-7-7-7-7-7-7-7-7-7--7-7-7-7-7-7-7-7-7-7-|
|-3-3-3-3-3-3-3-3-3-3-3--7-7-7-7-7-7-7-7-7-7--5-5-5-5-5-5-5-5-5-5-|
|-1-1-1-1-1-1-1-1-1-1-1--5-5-5-5-5-5-5-5-5-5----------------------|

Pre-Chorus

|---------------------------------------------------------------------------|
|---------------------------------------------------------------------------|
|-5-5-5-5-5-5---------------------------------------7-7-7-7-7-7-7-7-7-7-7---|
|-5-5-5-5-5-5--3-3-3-3-3--7-7-7-7-7-7--3-3-3-3-3-3--7-7-7-7-7-7-7-7-7-7-7---|
|-3-3-3-3-3-3--3-3-3-3-3--7-7-7-7-7-7--3-3-3-3-3-3--5-5-5-5-5-5-5-5-5-5-5---|
|--------------1-1-1-1-1--5-5-5-5-5-5--1-1-1-1-1-1--------------------------|

 -8-8-8-8-8-8-8-8-8-8-8-8--|
 -6-6-6-6-6-6-6-6-6-6-6-6--|
 -o-o-o-o-o-o-o-o-o-o-o-o--|
 -7-7-7-7-7-7-7-7-7-7-7-7--|
 -5-5-5-5-5-5-5-5-5-5-5-5--|
 -o-o-o-o-o-o-o-o-o-o-o-o--|

Chorus

|------------------------------------------------------------------|
|------------------------------------------------------------------| 2x
|-5-5-5-5-----------7-7-7-7-7--------------------------------------|
|-5-5-5-5--3-3-3-3--7-7-7-7-7--3-3-5-5-----------------------------|
|-3-3-3-3--3-3-3-3--5-5-5-5-5--3-3-5-5-----------------------------|
|----------1-1-1-1-------------1-1-3-3-----------------------------|

Outro

|-------------------------------------------------------|
|-------------------------------------------------------|  2x
|-7-7-7-7--7-7-7-7--4-4-4-4-4-4-4--9-9-9-9--------------|
|-7-7-7-7--7-7-7-7--4-4-4-4-4-4-4--9-9-9-9--5-5---7-7---|
|-5-5-5-5--4-4-4-4--2-2-2-2-2-2-2--7-7-7-7--5-5---7-7---|
|-------------------------------------------3-3---5-5---|

  after the 2x here is the next riff

|-------------------------------------------------------|
|-------------------------------------------------------|
|-7-7-7-7--7-7-7-7-----------------9-9-9-9--------------|
|-7-7-7-7--7-7-7-7--5-5-5-5-5-5-5--9-9-9-9--5-5---7-7---|
|-5-5-5-5--4-4-4-4--5-5-5-5-5-5-5--7-7-7-7--5-5---7-7---|
|-------------------3-3-3-3-3-3-3-----------3-3---5-5---|

  after that here

|------------------------------------------------------|
|------------------------------------------------------|
|-7-7-7-7--7-7-7-7--4-4-4-4-4-4-4--9-9-9-----------7-7-|
|-7-7-7-7--7-7-7-7--4-4-4-4-4-4-4--9-9-9---5--7----7-7-|
|-5-5-5-5--4-4-4-4--2-2-2-2-2-2-2--7-7-7---5--7----5-5-|
|------------------------------------------3--5--------|

   when it comes on the 4th chord just sturm it slowly........

   just listen to the song for the struming and more.........

Song Order:

Verse
Refrain
Pre-chorus
Chorus
†--------------------------------------------------------------------------†
2nd Verse (repeat the Verse chords)
2nd Refrain(repeat the refrain chords)
Pre-chorus(repeat the chords)
Chorus
Outro (the 2x one)
Outro (under the 2x)
Outro (the very last riff)
†--------------------------------------------------------------------------†
Song Lyrics:
She said, “I’ve got to be honest,
You’re wasting your time if you’re fishin’ around here.”
And I said, “You must be mistaken,
I’m not foolin’, this feelin’ is real.”
She said, “You’ve gotta be crazy!
What do you take me for? Some kinda of easy mark?”

“You’ve got wits,
You’ve got looks,
You’ve got passion,
But I swear that you’ve got me all wrong.”

All wrong
All wrong
But you’ve got me

I’ll be true, I’ll be useful, I’ll be cavalier,
I’ll be yours my dear
And I’ll belong to you
If you just let me through

This is easy as lovers go.
So don’t complicate it by hesitating.
This is wonderful as loving goes.
This is tailor made,
What’s the sense in waiting?

I said, “I’ve got to be honest,
I’ve been waiting for you all of my life.”
For so long I thought I was asylum bound,
But just seeing you makes me think twice.
And being with you here makes me sane.
I fear I’ll go crazy if you leave my side.

“You’ve got wits,
You’ve got looks,
You’ve got passion,
But are you brave enough to leave with me tonight?”

Tonight
Tonight
You’ve got me

I’ll be true, I’ll be useful, I’ll be cavalier,
I’ll be yours my dear
I’ll belong to you
If you just let me through

This is easy as lovers go. So don’t complicate it by hesitating.
This is wonderful as loving goes.
This is tailor made, what’s the sense in waiting?

This is easy as lovers go. So don’t complicate it by hesitating.
This is wonderful as loving goes.
This is tailor made, what’s the sense in waiting?

This is easy as lovers go. So don’t complicate it by hesitating.
This is wonderful as loving goes.
This is tailor made, what’s the sense in waiting?
Tap to rate this tab
 
# A B C D E F G H I J K L M N O P Q R S T U V W X Y Z