Song name
# A B C D E F G H I J K L M N O P Q R S T U V W X Y Z

Datsuns - Cherry Lane tab

The Datsuns
Cherry Lane
Outta Sight/Outta Mind

Vocal Intro-

Main riff
|  -------------------------------------------------------------------------------- |
|  -------------------------------------------------------------------------------- |
|  ------------------2-------------------2------------------2--------------------2- |
|  --5-5-7-7--2-2-2---5-5-7-7--2-2-2---5-5-7-7--2-2-2---5-5-7-7--2-2-2--lr---- ---- |
|  --5-5-7-7--2-2-0---5-5-7-7--2-2-0---5-5-7-7--2-2-0---5-5-7-7--2-2-0--lr--------- |
|  --3-0-5-0--0-0-----3-0-5-0--0-0------3-0-5-0--0-0------3-0-5-0--0-0---------- -- |

Verse 1

Chorus 1
|  --------------------------------------------------------------------- |
|  --------------------------------------------------------------------- |
|  ----------3-------------------7--5----------7-5---------7-5-----5--5- |
|  --7------3---3---7-------7--5--5--7----5-5-5---7----7-5-5---5--5----- |
|  --7-lr---5---3---7-lr----5--3--5--7-lr--5-3-5---7lr--5-3-5---3--3---- |
|  --5----------5---5--------------3---5---------3---5---------3-------- |

Main riff
|  -------------------------------------------------------------------------------- |
|  -------------------------------------------------------------------------------- |
|  ------------------2-------------------2------------------2--------------------2- |
|  --5-5-7-7--2-2-2---5-5-7-7--2-2-2---5-5-7-7--2-2-2---5-5-7-7--2-2-2--lr---- ---- |
|  --5-5-7-7--2-2-0---5-5-7-7--2-2-0---5-5-7-7--2-2-0---5-5-7-7--2-2-0--lr--------- |
|  --3-0-5-0--0-0-----3-0-5-0--0-0------3-0-5-0--0-0------3-0-5-0--0-0---------- -- |

Verse2

Chorus 1
|  --------------------------------------------------------------------- |
|  --------------------------------------------------------------------- |
|  ----------3-------------------7--5----------7-5---------7-5-----5--5- |
|  --7------3---3---7-------7--5--5--7----5-5-5---7----7-5-5---5--5----- |
|  --7-lr---5---3---7-lr----5--3--5--7-lr--5-3-5---7lr--5-3-5---3--3---- |
|  --5----------5---5--------------3---5---------3---5---------3-------- |

Main riff
|  -------------------------------------------------------------------------------- |
|  -------------------------------------------------------------------------------- |
|  ------------------2-------------------2------------------2--------------------2- |
|  --5-5-7-7--2-2-2---5-5-7-7--2-2-2---5-5-7-7--2-2-2---5-5-7-7--2-2-2--lr---- ---- |
|  --5-5-7-7--2-2-0---5-5-7-7--2-2-0---5-5-7-7--2-2-0---5-5-7-7--2-2-0--lr--------- |
|  --3-0-5-0--0-0-----3-0-5-0--0-0------3-0-5-0--0-0------3-0-5-0--0-0---------- -- |

Chorus 2
|  -------------------------------------------------------------------------------------------- |
|  -------------------------------------------------------------------------------------------- |
|  -------(7)--7-7-7---------------------------7-7-7-7-5-5-5-5---7-7-7-7-7-7-7-5-5-5-5-5-5-5-5- |
|  -------(7)--7-7-7---------------------------7-7-7-7-5-5-5-5---7-7-7-7-7-7-7-5-5-5-5-5-5-5-5- |
|  --3---(5)--5-5-5----------------------------5-5-5-5-3-3-3-3---5-5-5-5-5-5-5-3-3-3-3-3-3-3-3- |
|  --3-----------------3-3-3-5-5-5-7-7-7-7----------------------------------------------------- |

Bridge (I cant tab the actual notes, so these are the chords)
|  --3----------5---------3-------------5------------------------------------------------- |
|  --3----------5---------3-------------5------------------------------------------------  |
|  --4----------6---------4-------------6------------------------------------------------- |
|  --5----------7---------5-------------7------------------------------------------------  |
|  --5----------7---------5-------------7------------------------------------------------- |
|  --3----------5---------3-------------5------------------------------------------------  |

It goes straight into chorus 1
|  --------------------------------------------------------------------- |
|  --------------------------------------------------------------------- |
|  ----------3-------------------7--5----------7-5---------7-5-----5--5- |
|  --7------3---3---7-------7--5--5--7----5-5-5---7----7-5-5---5--5----- |
|  --7-lr---5---3---7-lr----5--3--5--7-lr--5-3-5---7lr--5-3-5---3--3---- |
|  --5----------5---5--------------3---5---------3---5---------3-------- |

Main riff
|  -------------------------------------------------------------------------------- |
|  -------------------------------------------------------------------------------- |
|  ------------------2-------------------2------------------2--------------------2- |
|  --5-5-7-7--2-2-2---5-5-7-7--2-2-2---5-5-7-7--2-2-2---5-5-7-7--2-2-2--lr---- ---- |
|  --5-5-7-7--2-2-0---5-5-7-7--2-2-0---5-5-7-7--2-2-0---5-5-7-7--2-2-0--lr--------- |
|  --3-0-5-0--0-0-----3-0-5-0--0-0------3-0-5-0--0-0------3-0-5-0--0-0---------- -- |

Legend:
Lr-let ring
h-hammer on
p-pull of
b-bend
x-dead note
h(#)-harmonic(hash means fret no.)
HB-HOLD bend( till you change fret)
f-feedback(by using or amp or high volume

Neways, I hope the tab is decent, please rate it and if you like Kiwi Rock and Roll or 
got some suggestions then email me on jamesdonaldson@hot-shot.com

cheers
Tap to rate this tab
# A B C D E F G H I J K L M N O P Q R S T U V W X Y Z