Song name
# A B C D E F G H I J K L M N O P Q R S T U V W X Y Z

Dave Matthews Band - Granny tab

Dave Matthews Band - Granny
My goal is not complete till most of all these DMB tabs are correct.
I will go slowly one by one correcting them.
Ya'll can figure out the strumming.

Verses:
E|-|----------------------------|
B|-|-5h7-7-55--3\5-3------------|
G|-|-7---7-77--2\4-2------------|
D|-|----------------------------|
A|-|----------------------------|
e|-|-----------------33220------|


"stop..."
E|-|------------------------------------------|
B|-|------------------------------------------|
G|-|-7---7-6---7-2-6---7-2-6---22-99----------|
D|-|-x---x-x---x-x-x---x-x-x---33-xx----------|
A|-|-x---x-x---x-x-x---x-x-x---33-77----------|
e|-|-7---7-5---7-2-5---7-2-5---11-88----------|

This is the part most of you can't get, but this is accurate

"Love.."
E|-|-----------------------|
B|-|-----66--33------------|
G|-|-77--55--22------------|
D|-|-77--33--00------------|
A|-|-55--xx--xx------------|
e|-|-----66--33------------|

Have fun with that last part!
Tap to rate this tab
# A B C D E F G H I J K L M N O P Q R S T U V W X Y Z