Song name
# A B C D E F G H I J K L M N O P Q R S T U V W X Y Z

Dave Matthews Band - Break Free tab

Verse
E:-----------------------------------------------------|
B:-----------------------------------------------------|
G:-----------------------------------------------------|
D:-----------------------------------------------------|
A:---------------5-4-------------4h5p4----4------------|
D:-----0--0-0-0--------4--4-4-4---------7--------------|

E:-----------------------------------------------------|
B:-----------------------------------------------------|
G:-----------------------------------------------------|
D:-----------------------------------------------------|
A:---------------4-2------------2-0--------------------|
D:-----2--2-2-2-------2--2-2-2-------------------------|


"I'll drink your poison"
E:-----------------------------------------------------|
B:-----------------------------------------------------|
G:-----------------------------------------------------|
D:-----------------------------------------------------|
A:-----4---2---2---0-----------------------------------|
D:-----7---6---5---4-----------------------------------|


Sorry but, I don't know the bridge.
I'll try and figure out the lyrics later for those of you
who want them. Any problems comment me. good luck!
Tap to rate this tab
# A B C D E F G H I J K L M N O P Q R S T U V W X Y Z