Song name
# A B C D E F G H I J K L M N O P Q R S T U V W X Y Z

Dave Matthews Band - Weight Of The World tab

Weight of the world - David J. Matthews Feat. Tim Reynolds.  -Unreleased-

Tunning Drop D: eBGDAD

Pre Song:

Dave likes to play around by holding down the 6th string on the seventh fret, followed 
hitting open 5th string.  if you tuned properly, it should have the same sound

e---------------------------------------------------|
B---------------------------------------------------|
G---------------------------------------------------|
D---------------------------------------------------|
A----0----0----0----0----0----0----0----0----0----0-|
D--7----7----7----7----7----7----7----7----7----7---|

Intro:

e---------------------------------------------------|
B---------------------------------------------------|
G---------------------------------------------------|
D---------------------------------------------------|
A--3h5--5--3h5---5--3h5--5--7-7--5-5--3h5--5--3h5-5-|
D---0---0---0---0---0---0---0---0---0---0---0---0---|

Verse:

e---------------------------------------------------|
B---------------------------------------------------|
G---------------------------------------------------|
D---------------------------------------------------|
A--3h5--5--3h5---5--3h5--5--3h5--5--3h5---5--3h5--5-|
D---0---0---0---0---0---0---0---0---0---0---0---0---|

Fill:

e---------------------------------------------------|
B---------------------------------------------------|
G---------------------------------------------------|
D---------------------------------------------------|
A--3h5--5--3h5--5-5--7-5--9-9--5-5--3h5--5--3h5-5-5-|
D---0---0---0---0---0---0---0---0---0---0---0---0---|

Chorus:

e------------------|
B------------------|
G---4-------7------|
D---4-------5------|
A---2-------5------|
D-----------5------|
Tap to rate this tab
# A B C D E F G H I J K L M N O P Q R S T U V W X Y Z