Song name
# A B C D E F G H I J K L M N O P Q R S T U V W X Y Z

Dave Matthews Band - Grace Is Gone tab

GRACE IS GONE Ė Dave Matthews Band
-------------------------------------------------------------------------------

INTRO
                                                                          S      S       
  S
e|-----------------------------------------------------------------------------------------------|
B|-------3----3---------------3-----3---3-------3--3------------3----3----3------3---3-----3-----|
G|-0h2-2------2h4--2---2-----2--2---0---0--0h2-2---2h4--2-2----------0h2--2--2---2------2--2-----|
D|-0-(0)--0----------0----4----4--2---2----0-(0)-0-------0-----2-----0----0---0--0---(0)-0-0-0---|
A|----------------------------------------------------------3-3---3------------------------------|
E|-----------------------------------------------------------------------------------------------|

FULL VERSE 1
        S        S       S       S         S
e|-------------------------------------------------------------|
B|------3--3-----3--3----3--3----3---------3-3------------3----|
G|-0h2--2----2---2-------2----0--0----0h2--2ó2h4-2-2-----0-----|
D|-0----0------0-0-0--4--4-----2-2-2--0----0------0ó-----------|
A|---------------------------------------------------3-(3)-3---|
E|-------------------------------------------------------------|
Neon shines, through smokey eyes tonight. Itís 2AM. Iím drunk again. Itís heavy on my mind.

SPACER
                                                                          S      S       
  S
e|-----------------------------------------------------------------------------------------------|
B|-------3----3---------------3-----3---3-------3--3------------3----3----3------3---3-----3-----|
G|-0h2-2------2h4--2---2-----2--2---0---0--0h2-2---2h4--2-2----------0h2--2--2---2------2--2-----|
D|-0-(0)--0----------0----4----4--2---2----0-(0)-0-------0-----2-----0----0---0--0---(0)-0-0-0---|
A|----------------------------------------------------------3-3---3------------------------------|
E|-----------------------------------------------------------------------------------------------|

FULL VERSE 2 (Same as Verse 1): I could never love again, so much as I love you. Where 
you end, where I begin is like a river going though.

SPACER (Same)

 
PARTIAL VERSE 3
        S        S       S       S         S
e|-------------------------------------------------------------------------|
B|------3--3-----3--3----3--3----3----------3---3------------3--------3----|
G|-0h2--2----2---2-------2----0--0----0h2-2----ó2h4-2-2-----0-----0h2-2----|
D|-0----0------0-0-0--4--4-----2-2-2--0-(0)--0-------0ó-----------0---0--0-|
A|------------------------------------------------------3-(3)-3------------|
E|-------------------------------------------------------------------------|
So take my eyes. Take my heart. I need them no more. If never again they fall upon the 
one I so adore.

CHORUS
      S       S       S        S       S        S       S       S
e|-3--3-------3-------2--------2-------2--------2-------0ó-0-0---0---|
B|-3--3-3-----3----3--3--3-----3-------3--3-----3-------2--2-2---2---|
G|-0--0---0---0----2--2----2---2-------4----4---4-------2--2-2---2---|
D|----0-------0----0--0---0-0--0-------4--------4-------2--------2---|
A|-------------------------------0--2--2---2-2--2--2-0---------0---0-|
E|-3-----3-3----3----------------------------------------------------|
Excuse me please, one more drink. Could you make it strong? Cause I, donít need to think.

      S       S       S        S       S      S
e|-3--3-------3-------2--------2-------0-------0-----|
B|-3--3-3-----3----3--3--3-----3-------2--2----2-----|
G|-0--0---0---0----2--2----2---2-------2----2--2-----|
D|----0-------0----0--0---0-0--0-------2-------2-----|
A|-------------------------------0--4ó-4-----4-4-4---|
E|-3-----3-3----3------------------------------------|
She broke my heart, my Grace is Gone. One more drink and Iíll move on.

SPACER (Same)

FULL VERSE 4: One drink to remember. Then another to forget.  How could I ever dream to 
find, sweet love like you again?

PARTIAL VERSE 5: One drink to remember. And another to forget.

CHORUS (Same as above)



 
BRIDGE 1
e|--------------------------2-----0-----|
B|-------3----3-------------3-----2-----|
G|-0h2-2------2h4--2---0----4-----2ó(x2)|
D|-0-(0)--0----------0------4-----2-----|
A|-----------------------2--2--0--0-----|
E|--------------------------------------|
One more drink and Iíll be gone.

SPACER (Same as above)

PARTIAL VERSE 6: You think of things impossible. Then the sun refuse to shine. When I 
woke with you beside me. Your cold hand lay in mine.

CHORUS (Same as above)

CHORUS (Same as above)

BRIDGE 2: One more drink and Iíll be gone.

BRIDGE 3: One more drink my Grace is Gone.

OUTRO
e|------------------------------------------------------------------------|
B|-------3----3---------------3-----3---3-------3--3------------3----3----|
G|-0h2-2------2h4--2---2-----2--2---0---0--0h2-2---2h4--2-2----------0h2--|
D|-0-(0)--0----------0----4----4--2---2----0-(0)-0-------0-----2-----0----|
A|----------------------------------------------------------3-3---3-------|
E|------------------------------------------------------------------------|
Tap to rate this tab
# A B C D E F G H I J K L M N O P Q R S T U V W X Y Z