Song name
# A B C D E F G H I J K L M N O P Q R S T U V W X Y Z

David Gilmour - Theres No Way Out Of Here tab

There’s no way out of here
By David Gilmour
on the album David Gilmour(awesome album defanetly get it)

14b----bend 14 up to sound like 16
vvv----Vibrato
X------play muted strings

Light Distortion guitar
  Em                       G       Em            D  A
e------------------------------------------------2--0-|
b-----------0-------------------------------0----3--2-|
g-------X---0-----------X--0------------X---0----2--2-|
d--2----X---2-----------X--0-------2----X---2----0--2-|
a--2----X---2-----------X--2-------2----X---2-------0-|
E--0----X---0--0-2-3----X--3-------0----X---0---------|


Intro solo w/ talk box
e-----------------------------------------------------|
b---10b--10-10p8-8--10b-10-8-8—-10b-r10--8------------|
g-----------------------------------------------------| X2
d-----------------------------------------------------|
a-----------------------------------------------------|
E-----------------------------------------------------|

When he starts singing he just plays this (still light distortion)


 Em                       G       Em            D   A
e------------------------------------------------2—-0---|
b-----------0-------------------------------0----3—-2---|
g-------X---0-----------X--0------------X---0----2—-2---|
d--2----X---2-----------X--0-------2----X---2----0—-2---|
a--2----X---2-----------X--2-------2----X---2-------0---|
E--0----X---0--0-2-3----X--3-------0----X---0-----------|

Em                       G       Em              D  A
e------------------------------------------------2—-0----|
b-----------0-------------------------------0----3—-2----|
g-------X---0-----------X--0------------X---0----2—-2--4-|
d--2----X---2-----------X--0-------2----X---2----0--2--4-|
a--2----X---2-----------X--2-------2----X---2-------0--2-|
E--0----X---0--0-2-3----X--3-------0----X---0------------|

Repeat that 2 or three times until you get to the solo
e—-12~~-----------12-------------------------------------------|
b—-15b~--------12-----15p12------------------------------------|
g----------14b--------------14p12-------14b-14b—12vvv----------|
d--------------------------------14vvv-------------------------|
a--------------------------------------------------------------|
E--------------------------------------------------------------|
then the chorus comes
Hard to hear but heres the chorus

  G                                    C                   Am
e----3-3-3---3-3-3---3-3-3------3-3-3------0-0-0-----0-0-0----0-0------|
b----3-3-3---3-3-3---3-3-3------3-3-3------1-1-1-----1-1-1----1-1------|
g----0-0-0---0-0-0---0-0-0------0-0-0------0-0-0-----0-0-0----2-2------|
d----0-0-0---0-0-0---0-0-0—--0~-0-0-0----2-2-2-2---2-2-2-2--2-2-2------|
a----2-2-2---2-2-2---2-2-2-------------3---3-3-3--2--------0-----------|
E-3~-3-3-3—2~------0~--------------------------------------------------|
   F     Em
e--1------0--|
b--1------0--|
g--2------0--|  repeat twice whole thing(or so)
d--3------2--|
a--3------2--|
E--1------0--|

Now play the intro solo once

Then you play this riff and chorus throughout the rest of the song. All the other solos 
fairly similar to the other one(not the intro one). I just kind of improvise and it 
good so have fun.
Em                       G       Em              D  A
e------------------------------------------------2—-0---|
b-----------0-------------------------------0----3—-2---|
g-------X---0-----------X--0------------X---0----2—-2---|
d--2----X---2-----------X--0-------2----X---2----0—-2---|
a--2----X---2-----------X--2-------2----X---2-------0---|
E--0----X---0--0-2-3----X--3-------0----X---0-----------|

Em                       G       Em              D  A
e------------------------------------------------2—-0----|
b-----------0-------------------------------0----3—-2----|
g-------X---0-----------X--0------------X---0----2—-2--4-|
d--2----X---2-----------X--0-------2----X---2----0--2--4-|
a--2----X---2-----------X--2-------2----X---2-------0--2-|
E--0----X---0--0-2-3----X--3-------0----X---0------------|
Tap to rate this tab
# A B C D E F G H I J K L M N O P Q R S T U V W X Y Z