Song name
# A B C D E F G H I J K L M N O P Q R S T U V W X Y Z

David Gilmour - Smile tab

Main Gtr



     C6                  C7M                C6                
     E  E  Q    E  E     E   E  H           E  E  Q    E  E   
E||--------0----0--0--|---------0--------|--------0----0--0--|
B||--------1----1-----|---------0--------|--------1----1-----|
G||--------2----2-----|------0--0--------|--------2----2-----|
D||-----2-------------|------------------|-----2-------------|
A||--3----------------|--3---------------|--3----------------|
E||-------------------|------------------|-------------------|


  C7M                C6                  C7M                C6                
  E   E  H           E  E  Q    E  E     E   E  H           E  E  Q    E  E   
---------0--------|--------0----0--0--|---------0--------|--------0----0--0--|
---------0--------|--------1----1-----|---------0--------|--------1----1-----|
------0--0--------|--------2----2-----|------0--0--------|--------2----2-----|
------------------|-----2-------------|------------------|-----2-------------|
--3---------------|--3----------------|--3---------------|--3----------------|
------------------|-------------------|------------------|-------------------|


  C7M                  C6                  C7M               
  E   E  H             E  E  Q    E  E     E   E  Q    Q     
---------0--------||---------0----0--0--|---------0----0----|
---------0--------||---------1----1-----|---------0----0----|
------0--0--------||*--------2----2-----|------0--0----0----|
------------------||*-----2-------------|-------------------|
--3---------------||---3----------------|--3----------------|
------------------||--------------------|-------------------|


  C6                  C7M                C6                  C7M               
  E  E  Q    E  E     E   E  H           E  E  Q    E  E     E   E  Q    Q     
--------0----0--0--|---------0--------|--------0----0--0--|---------0----0----|
--------1----1-----|---------0--------|--------1----1-----|---------0----0----|
--------2----2-----|------0--0--------|--------2----2-----|------0--0----0----|
-----2-------------|------------------|-----2-------------|-------------------|
--3----------------|--3---------------|--3----------------|--3----------------|
-------------------|------------------|-------------------|-------------------|


  C6                  C7M                 Dm                
  E  E  Q    E  E     E   E  Q    Q       E  E  Q    E  E   
--------0----0--0--|---------0----0----|--1--1--1----1--1--|
--------1----1-----|---------0----0----|--3--3--3----3--3--|
--------2----2-----|------0--0----0----|--2--2--2----2--2--|
-----2-------------|-------------------|--0--0--0----0--0--|
--3----------------|--3----------------|-------------------|
-------------------|-------------------|-------------------|


  Em7                  F    F7M  F       G                 Dm                
  E   E  Q    E  E     Q    Q    Q       Q    Q    Q       E  E  Q    E  E   
--0---0--0----0--0--|--1----0----1----|--x----x----x----|--1--1--1----1--1--|
--3---3--3----3--3--|--1----1----1----|--0----0----0----|--3--3--3----3--3--|
--0---0--0----0--0--|--2----2----2----|--0----0----0----|--2--2--2----2--2--|
--2---2--2----2--2--|--3----2----3----|--0----0----0----|--0--0--0----0--0--|
--2---2--2----2--2--|--3----0----3----|--2----2----2----|-------------------|
--0---0--0----0--0--|--1----1----1----|--3----3----3----|-------------------|


  Em7                  F    F7M  F       G               C6                
  E   E  Q    E  E     Q    Q    Q       H.              E  E  Q    E  E   
--0---0--0----0--0--|--1----0----1----|---------------|--0--0--0----0--0--|
--3---3--3----3--3--|--1----1----1----|--0------------|--1--1--1----1--1--|
--0---0--0----0--0--|--2----2----2----|--0------------|--2--2--2----2--2--|
--2---2--2----2--2--|--3----2----3----|--0------------|--2--2--2----2--2--|
--2---2--2----2--2--|--3----0----3----|--2------------|--3--3--3----3--3--|
--0---0--0----0--0--|--1----1----1----|--3------------|-------------------|


  C7M                C6                  C7M                 C6                
  E   E  H           E  E  Q    E  E     E   E  Q    Q       E  E  Q    E  E   
--0---0--0--------|--0--0--0----0--0--|--0---0--0----0----|--0--0--0----0--0--|
--0---0--0--------|--1--1--1----1--1--|--0---0--0----0----|--1--1--1----1--1--|
--0---0--0--------|--2--2--2----2--2--|--0---0--0----0----|--2--2--2----2--2--|
--2---2--2--------|--2--2--2----2--2--|--2---2--2----2----|--2--2--2----2--2--|
--3---3--3--------|--3--3--3----3--3--|--3---3--3----3----|--3--3--3----3--3--|
------------------|-------------------|-------------------|-------------------|


  C7M                 C6                  C7M                 
  E   E  Q    Q       E  E  Q    E  E     E   E  Q    Q       
--0---0--0----0----|--0--0--0----0--0--|--0---0--0----0-----||
--0---0--0----0----|--1--1--1----1--1--|--0---0--0----0-----||
--0---0--0----0----|--2--2--2----2--2--|--0---0--0----0----*||
--2---2--2----2----|--2--2--2----2--2--|--2---2--2----2----*||
--3---3--3----3----|--3--3--3----3--3--|--3---3--3----3-----||
-------------------|-------------------|--------------------||


  C7M                C6                  C7M                C6                
  E   E  H           E  E  Q    E  E     E   E  H           E  E  Q    E  E   
---------0--------|--------0----0--0--|---------0--------|--------0----0--0--|
---------0--------|--------1----1-----|---------0--------|--------1----1-----|
---------0--------|--------2----2-----|---------0--------|--------2----2-----|
------2-----------|-----2-------------|------2-----------|-----2-------------|
--3---------------|--3----------------|--3---------------|--3----------------|
------------------|-------------------|------------------|-------------------|


  C7M                C6                                    F7M                
  E   E  H           E  E  Q    E  E     Q    Q    Q       E   E  Q    E  E   
---------0--------|--------0----0--0--|-----------------|--0---0--0----0--0--|
---------0--------|--------1----1-----|-----------------|--1---1--1----1--1--|
---------0--------|--------2----2-----|--5--------------|--2---2--2----2--2--|
------2-----------|-----2-------------|-------0----2----|--2---2--2----2--2--|
--3---------------|--3----------------|-----------------|--0---0--0----0--0--|
------------------|-------------------|-----------------|--1---1--1----1--1--|


  F7Madd11+                F7M                  F7Madd11+              
  Q         E  E  E  E     E   E  Q    E  E     Q         E  E  E  E   
--0---------0--0--0--0--|--0---0--0----0--0--|--0---------0--0--0--0--|
--0---------0--0--0--0--|--1---1--1----1--1--|--0---------0--0--0--0--|
--2---------2--2--2--2--|--2---2--2----2--2--|--2---------2--2--2--2--|
--3---------3--3--3--3--|--2---2--2----2--2--|--3---------3--3--3--3--|
--3---------3--3--3--3--|--0---0--0----0--0--|--3---------3--3--3--3--|
--1---------1--1--1--1--|--1---1--1----1--1--|--1---------1--1--1--1--|


  Am                 Asus2               Am                 
  Q    Q    E  E     Q     Q    E  E     E  E  E  E  E  E   
--0----0----0--0--|--0-----0----0--0--|--0--0--0--0--0--0--|
--1----1----1--1--|--0-----0----0--0--|--1--1--1--1--1--1--|
--2----2----2--2--|--2-----2----2--2--|--2--2--2--2--2--2--|
--2----2----2--2--|--2-----2----2--2--|--2--2--2--2--2--2--|
--0----0----0--0--|--0-----0----0--0--|--0--0--0--0--0--0--|
------------------|-------------------|--------------------|


  Asus2                  F7M                F7Madd11+                
  E     E  Q    E  E     Q    Q    E  E     E         E  Q    E  E   
--0-----0--0----0--0--|--0----0----0--0--|--0---------0--0----0--0--|
--0-----0--0----0--0--|--1----1----1--1--|--0---------0--0----0--0--|
--2-----2--2----2--2--|--2----2----2--2--|--2---------2--2----2--2--|
--2-----2--2----2--2--|--2----2----2--2--|--3---------3--3----3--3--|
--0-----0--0----0--0--|--0----0----0--0--|--3---------3--3----3--3--|
----------------------|--1----1----1--1--|--1---------1--1----1--1--|


  F7M                  FM9                G6add11                
  E   E  Q    E  E     Q    Q    E  E     E       E  Q    E  E   
--0---0--0----0--0--|--0----0----0--0--|--0-------0--0----0--0--|
--1---1--1----1--1--|--1----1----1--1--|--1-------1--1----1--1--|
--2---2--2----2--2--|--0----0----0--0--|--0-------0--0----0--0--|
--2---2--2----2--2--|--3----3----3--3--|--0-------0--0----0--0--|
--0---0--0----0--0--|--3----3----3--3--|--2-------2--2----2--2--|
--1---1--1----1--1--|--1----1----1--1--|--3-------3--3----3--3--|


  G                  G6add9                  G                 C6               
  Q    Q    E  E     E      E  Q    E  E     Q    Q    Q       E  E  Q    Q     
--x----x----x--x--|--0------0--0----0--0--|--x----x----x----|--0--0--0----0----|
--0----0----0--0--|--0------0--0----0--0--|--0----0----0----|--1--1--1----1----|
--0----0----0--0--|--2------2--2----2--2--|--0----0----0----|--2--2--2----2----|
--0----0----0--0--|--0------0--0----0--0--|--0----0----0----|--2--2--2----2----|
--2----2----2--2--|--2------2--2----2--2--|--2----2----2----|--3--3--3----3----|
--3----3----3--3--|--3------3--3----3--3--|--3----3----3----|------------------|


  C7M                 C6                  C7M                C6                
  E   E  Q.     E     E  E  Q    E  E     E   E  H           E  E  Q    E  E   
--0---0--0------0--|--0--0--0----0--0--|--0---0--0--------|--------0----0--0--|
--0---0--0------0--|--1--1--1----1--1--|--0---0--0--------|--------1----1-----|
--0---0--0------0--|--2--2--2----2--2--|--0---0--0--------|--------2----2-----|
--2---2--2------2--|--2--2--2----2--2--|--2---2--2--------|-----2-------------|
--3---3--3------3--|--3--3--3----3--3--|--3---3--3--------|--3----------------|
-------------------|-------------------|------------------|-------------------|


  C7M                C6                  C7M                 C6                
  E   E  H           E  E  Q    E  E     E   E  Q    Q       E  E  Q    E  E   
---------0--------|--------0----0--0--|---------0----0----|--------0----0--0--|
---------0--------|--------1----1-----|---------0----0----|--------1----1-----|
------0--0--------|--------2----2-----|------0--0----0----|--------2----2-----|
------------------|-----2-------------|-------------------|-----2-------------|
--3---------------|--3----------------|--3----------------|--3----------------|
------------------|-------------------|-------------------|-------------------|


  C7M                 C6                  C7M                C6                
  E   E  Q    Q       E  E  Q    E  E     E   E  H           E  E  Q    E  E   
---------0----0----|--------0----0--0--|---------0--------|--------0----0--0--|
---------0----0----|--------1----1-----|---------0--------|--------1----1-----|
------0--0----0----|--------2----2-----|------0--0--------|--------2----2-----|
-------------------|-----2-------------|------------------|-----2-------------|
--3----------------|--3----------------|--3---------------|--3----------------|
-------------------|-------------------|------------------|-------------------|


  C7M                  C6                  C7M                
  E   E  Q    E  E     E  E  Q    E  E     E   E  Q    E  E   
---------0----0--0--|--------0----0--0--|---------0----0--0--|
---------0----0-----|--------1----1-----|---------0----0-----|
---------0----0-----|--------2----2-----|---------0----0-----|
------2-------------|-----2-------------|------2-------------|
--3-----------------|--3----------------|--3-----------------|
--------------------|-------------------|--------------------|


  C6                  C7M                  C6                
  E  E  Q    E  E     E   E  Q    E  E     E  E  Q    E  E   
--------0----0--0--|---------0----0--0--|--------0----0--0--|
--------1----1-----|---------0----0-----|--------1----1-----|
--------2----2-----|---------0----0-----|--------2----2-----|
-----2-------------|------2-------------|-----2-------------|
--3----------------|--3-----------------|--3----------------|
-------------------|--------------------|-------------------|


  C7M                  Dm                  Em7                
  E   E  Q    E  E     E  E  Q    E  E     E   E  Q    E  E   
---------0----0--0--|--1--1--1----1--1--|--0---0--0----0--0--|
---------0----0-----|--3--3--3----3--3--|--3---3--3----3--3--|
---------0----0-----|--2--2--2----2--2--|--0---0--0----0--0--|
------2-------------|--0--0--0----0--0--|--2---2--2----2--2--|
--3-----------------|-------------------|--2---2--2----2--2--|
--------------------|-------------------|--0---0--0----0--0--|


  F     F7M  F6       G6                Dm                  Em7                
  E  E  Q    E  E     Q    Q    Q       E  E  Q    E  E     E   E  Q    E  E   
--1--1--0----1--1--|--0----0----0----|--1--1--1----1--1--|--0---0--0----0--0--|
--1--1--1----1--1--|--0----0----0----|--3--3--3----3--3--|--3---3--3----3--3--|
--2--2--2----2--2--|--0----0----0----|--2--2--2----2--2--|--0---0--0----0--0--|
--3--3--2----0--0--|--0----0----0----|--0--0--0----0--0--|--2---2--2----2--2--|
--3--3--0----0--0--|--2----2----2----|-------------------|--2---2--2----2--2--|
--1--1--1----1--1--|--3----3----3----|-------------------|--0---0--0----0--0--|


  F     F7M  F6       G6              C6                  C7M              
  E  E  Q    E  E     H.              E  E  Q    E  E     E   E  H         
--1--1--0----1--1--|--0------------|--------0----0--0--|---------0--------|
--1--1--1----1--1--|--0------------|--------1----1-----|---------0--------|
--2--2--2----2--2--|--0------------|--------2----2-----|------0--0--------|
--3--3--2----0--0--|--0------------|-----2-------------|------------------|
--3--3--0----0--0--|--2------------|--3----------------|--3---------------|
--1--1--1----1--1--|--3------------|-------------------|------------------|


  C6                  C7M                C6                  C7M                
  E  E  Q    E  E     E   E  H           E  E  Q    E  E     E   E  Q    E  E   
--------0----0--0--|---------0--------|--------0----0--0--|---------0----0--0--|
--------1----1-----|---------0--------|--------1----1-----|---------0----0-----|
--------2----2-----|------0--0--------|--------2----2-----|---------0----0-----|
-----2-------------|------------------|-----2-------------|------2-------------|
--3----------------|--3---------------|--3----------------|--3-----------------|
-------------------|------------------|-------------------|--------------------|


  C6          C7M     C6                             
                      ^                              
  E  E  E  E  Q       H.                             
--0--0--0--0--0----|--0------------|---------------||
--1--1--1--1--0----|--1------------|---------------||
--2--2--2--2--0----|--2------------|---------------||
--2--2--2--2--2----|--2------------|---------------||
--3--3--3--3--3----|--3------------|---------------||
-------------------|---------------|---------------||










Slide Gtr



                             Q    H            H        E   E   
E||-------|-------|-------|-------3s--------|--8--------L\-----|
B||-------|-------|-------|-----------------|------------------|
G||-------|-------|-------|-----------------|------------------|
D||-------|-------|-------|-----------------|------------------|
A||-------|-------|-------|-----------------|------------------|
E||-------|-------|-------|-----------------|------------------|


  E   Q.     Q       E   Q.       E   E      H.                H.            
--5s--7-----------|--3s--5------5g7s--5s--|--3------------||----------------|
------------------|-----------------------|---------------||----------------|
------------------|-----------------------|---------------||*---------------|
------------------|-----------------------|---------------||*---------------|
------------------|-----------------------|---------------||----------------|
------------------|-----------------------|---------------||----------------|


  Q    E   E   Q       H.              H.              H.            
-------7s--8s--7----|--L------------|---------------|---------------|
--------------------|---------------|---------------|---------------|
--------------------|---------------|---------------|---------------|
--------------------|---------------|---------------|---------------|
--------------------|---------------|---------------|---------------|
--------------------|---------------|---------------|---------------|


  H.              Q    E   E    Q       Q    Q    Q       H.            
---------------|-------7s--8s--10----|--L--------------|--5------------|
---------------|---------------------|-----------------|---------------|
---------------|---------------------|-----------------|---------------|
---------------|---------------------|-----------------|---------------|
---------------|---------------------|-----------------|---------------|
---------------|---------------------|-----------------|---------------|


  E   E   Q    Q       Q    Q    E   E     H.                H.            
--7s--8s--7---------|--8----7----5s--3--|--3------------|--3g5------------|
--------------------|-------------------|---------------|-----------------|
--------------------|-------------------|---------------|-----------------|
--------------------|-------------------|---------------|-----------------|
--------------------|-------------------|---------------|-----------------|
--------------------|-------------------|---------------|-----------------|


  E   E   Q    Q         Q     Q    Q       Q     Q     Q      
--7s--8s--7---------|--7g8s----7----5----|--7s----8----10S----|
--------------------|--------------------|--------------------|
--------------------|--------------------|--------------------|
--------------------|--------------------|--------------------|
--------------------|--------------------|--------------------|
--------------------|--------------------|--------------------|


  |-3-|                                                       
  E   Q    H             H         Q       H         E   E    
--7s--8----L--------|--5g7s--------0----|--5s--------7s--5s--|
--------------------|-------------------|--------------------|
--------------------|-------------------|--------------------|
--------------------|-------------------|--------------------|
--------------------|-------------------|--------------------|
--------------------|-------------------|--------------------|


  H        E  E      H        E   E       H        Q         H        E  E    
--3--------0--3s--|--8--------L\-----|--5g7-------------|--3g5---------------|
------------------|------------------|------------------|----------------5s--|
------------------|------------------|------------------|--------------------|
------------------|------------------|------------------|--------------------|
------------------|------------------|------------------|--------------------|
------------------|------------------|------------------|--------------------|


  H.                  H        E   E       H        E   E   
----------------||--5g7--------7s--0--|--3g5--------Ls--3--|
--8-------------||--------------------|--------------------|
---------------*||--------------------|--------------------|
---------------*||--------------------|--------------------|
----------------||--------------------|--------------------|
----------------||--------------------|--------------------|


           |---3--|                                       
  H        E   E  E       H.              H         Q     
--L------------------|--7g8------------|--7s--------0----|
------------------8--|-----------------|-----------------|
-----------7s--9-----|-----------------|-----------------|
---------------------|-----------------|-----------------|
---------------------|-----------------|-----------------|
---------------------|-----------------|-----------------|


    |----3----|                                                  
    Q    Q    Q    E  E      H        Q         H        E   E   
--3g5----5----5----5------|-----------3s----|--12--------L\-----|
----------------------5s--|--8--------------|-------------------|
--------------------------|-----------------|-------------------|
--------------------------|-----------------|-------------------|
--------------------------|-----------------|-------------------|
--------------------------|-----------------|-------------------|


   H        E   E     H        E   E     H.              H         Q      
--10--------L\--0--|--8--------L\-----|--7------------|--8--------12s----|
-------------------|------------------|---------------|------------------|
-------------------|------------------|---------------|------------------|
-------------------|------------------|---------------|------------------|
-------------------|------------------|---------------|------------------|
-------------------|------------------|---------------|------------------|


                      |----3----|                              
  H        E  E       Q    Q    Q    E   E       H.            
--7-----------0--|--3g5----5----5----Ls--0--|-----------------|
-----------------|--------------------------|--5g8------------|
-----------------|--------------------------|-----------------|
-----------------|--------------------------|-----------------|
-----------------|--------------------------|-----------------|
-----------------|--------------------------|-----------------|


  |-3-|                                                                         
  E   Q    H           E  E    Q    Q          Q    H             H.            
--------------------|--------------------|-------------------|-----------------|
--------------------|---------------8----|--8g10----8--------|-----------------|
--9s--7----5--------|--L--5--7g9---------|-------------------|--9g7------------|
--------------------|--------------------|-------------------|-----------------|
--------------------|--------------------|-------------------|-----------------|
--------------------|--------------------|-------------------|-----------------|


    H.                H.                H.                E   E  E  E  Q     
--7g8------------|--5g7------------|--3g5------------|--5g7s--5--3----------|
-----------------|-----------------|-----------------|--------------3--L----|
-----------------|-----------------|-----------------|----------------------|
-----------------|-----------------|-----------------|----------------------|
-----------------|-----------------|-----------------|----------------------|
-----------------|-----------------|-----------------|----------------------|


    H.              Q      Q    Q          Q    Q      Q     
-----------------|-------------------|----------------------|
-----------------|--------------8----|--8g10----8s----10----|
--7g9------------|--L----7g9---------|----------------------|
-----------------|-------------------|----------------------|
-----------------|-------------------|----------------------|
-----------------|-------------------|----------------------|


                                                 |--3--|   
  H         E   E      H.              Q    Q    E  E  E   
-------------------|--15------------|------------0--0-----|
-------------------|----------------|---------------------|
--9h--------9s--5--|----------------|---------------------|
-------------------|----------------|---------------------|
-------------------|----------------|---------------------|
-------------------|----------------|---------------------|


                   |-3-|                                                  
     Q     E   E   E   Q         H        E   E     Q       Q     E   E   
--8g15----15--15--15--17\----|--15--------L\-----|-------8g12----15--15--|
-----------------------------|-------------------|-----------------------|
-----------------------------|-------------------|-----------------------|
-----------------------------|-------------------|-----------------------|
-----------------------------|-------------------|-----------------------|
-----------------------------|-------------------|-----------------------|


                                                            |---3---|   
   E    E   Q    E   E      Q      Q    Q        Q     Q    E   E   E   
--15s--17--15----L--15--|--15s----12---------|--12s----5----Ls--7s--5--|
------------------------|--------------------|-------------------------|
------------------------|--------------------|-------------------------|
------------------------|--------------------|-------------------------|
------------------------|--------------------|-------------------------|
------------------------|--------------------|-------------------------|


  H.              Q      Q    Q          Q    H             Q      H         
---------------|-------------------|-------------------|--------------------|
--8------------|--L-----------8----|--8g10----8--------|--------------------|
---------------|-------7g9---------|-------------------|--7g9s----12--------|
---------------|-------------------|-------------------|--------------------|
---------------|-------------------|-------------------|--------------------|
---------------|-------------------|-------------------|--------------------|


    H        Q          Q    Q    Q         Q    H             Q     H         
------------------|--------------------|--7g8----7--------|--3g5s----3--------|
-------------8----|--8g10----8---------|------------------|-------------------|
--5g7-------------|--------------------|------------------|-------------------|
------------------|--------------------|------------------|-------------------|
------------------|--------------------|------------------|-------------------|
------------------|--------------------|------------------|-------------------|


    H.               H.                Q     Q    Q         H         Q     
--7g8------------|--10------------|--7g8s----7----5----|--5g7s--------3----|
-----------------|----------------|--------------------|-------------------|
-----------------|----------------|--------------------|-------------------|
-----------------|----------------|--------------------|-------------------|
-----------------|----------------|--------------------|-------------------|
-----------------|----------------|--------------------|-------------------|


    Q     Q    Q        E    E    Q    E  E       Q    Q     Q     
--3g5s----8----8----|--10s--12s--10-------0--|--7g8----7s----5----|
--------------------|------------------------|--------------------|
--------------------|------------------------|--------------------|
--------------------|------------------------|--------------------|
--------------------|------------------------|--------------------|
--------------------|------------------------|--------------------|


    Q     Q     Q           H.                 H.                H.            
--5g7s----8----10----|--10g12------------|--8g10------------|--7g8------------|
---------------------|-------------------|------------------|-----------------|
---------------------|-------------------|------------------|-----------------|
---------------------|-------------------|------------------|-----------------|
---------------------|-------------------|------------------|-----------------|
---------------------|-------------------|------------------|-----------------|


    H         Q          H.                 H        E  E       H        Q      
--5g7s--------3----|--3g12------------|--8g10-----------0--|--7g8--------7s----|
-------------------|------------------|--------------------|-------------------|
-------------------|------------------|--------------------|-------------------|
-------------------|------------------|--------------------|-------------------|
-------------------|------------------|--------------------|-------------------|
-------------------|------------------|--------------------|-------------------|


  H.                             
--3------------|---------------||
---------------|---------------||
---------------|---------------||
---------------|---------------||
---------------|---------------||
---------------|---------------||










3.Gtr. (Capo 5)



E||-------|-------|-------|-------|-------|-------|-------|-------|
B||-------|-------|-------|-------|-------|-------|-------|-------|
G||-------|-------|-------|-------|-------|-------|-------|-------|
D||-------|-------|-------|-------|-------|-------|-------|-------|
A||-------|-------|-------|-------|-------|-------|-------|-------|
E||-------|-------|-------|-------|-------|-------|-------|-------|


    E  E  Q    Q       E  E  H           E  E  Q    Q       E  E  H         
|---------3----3----|--------2--------|------------------|--------2--------|
|---------3----3----|--------3--------|--------5----5----|--------3--------|
|*-----4--4----4----|-----4--4--------|-----4--4----4----|-----4--4--------|
|*--5---------------|--4--------------|--5---------------|--4--------------|
|-------------------|-----------------|------------------|-----------------|
|-------------------|-----------------|------------------|-----------------|


  E  E  Q    Q       E  E  H           E  E  Q    Q       E  E  H         
--------3----3----|--------2--------|------------------|--------2--------|
--------3----3----|--------3--------|--------5----5----|--------3--------|
-----4--4----4----|-----4--4--------|-----4--4----4----|-----4--4--------|
--5---------------|--4--------------|--5---------------|--4--------------|
------------------|-----------------|------------------|-----------------|
------------------|-----------------|------------------|-----------------|


  E  E  Q    Q       E  E  Q    Q       Q    Q    Q       Q    Q    Q     
--------0----0----|--------2----2----|--0----0----0----|--2----2----2----|
--------1----1----|--------3----3----|--1----1----1----|--3----3----3----|
--------2----2----|--------4----4----|--0----0----0----|--2----2----2----|
-----2------------|-----4------------|--2----2----2----|--0----0----0----|
--0---------------|--2---------------|--3----3----3----|-----------------|
------------------|------------------|-----------------|-----------------|


  E  E  Q    Q       E  E  Q    Q       Q    Q    Q       Q    Q    Q     
--------0----0----|--------2----2----|--0----0----0----|--2----2----2----|
--------1----1----|--------3----3----|--1----1----1----|--3----3----3----|
--------2----2----|--------4----4----|--0----0----0----|--2----2----2----|
-----2------------|-----4------------|--2----2----2----|--0----0----0----|
--0---------------|--2---------------|--3----3----3----|-----------------|
------------------|------------------|-----------------|-----------------|


  E  E  Q    Q       H.              H.              H.            
--------3----3----|---------------|---------------|---------------|
--------3----3----|---------------|---------------|---------------|
-----4--4----4----|---------------|---------------|---------------|
--5---------------|---------------|---------------|---------------|
------------------|---------------|---------------|---------------|
------------------|---------------|---------------|---------------|


  H.              H.              H.              H.              
---------------|---------------|---------------|----------------||
---------------|---------------|---------------|----------------||
---------------|---------------|---------------|---------------*||
---------------|---------------|---------------|---------------*||
---------------|---------------|---------------|----------------||
---------------|---------------|---------------|----------------||


  E  E  H           E  E  Q    Q       E  E  H           E  E  Q    Q     
--------2--------|------------------|--------2--------|--------3----3----|
--------3--------|--------5----5----|--------3--------|--------3----3----|
-----4--4--------|-----4--4----4----|-----4--4--------|-----4--4----4----|
--4--------------|--5---------------|--4--------------|--5---------------|
-----------------|------------------|-----------------|------------------|
-----------------|------------------|-----------------|------------------|


  E  E  H           E  E  Q    Q       E  E  H           Q    Q    E  E   
--------2--------|------------------|--------2--------|--0----0----0--0--|
--------3--------|--------5----5----|--------3--------|--1----1----1--1--|
-----4--4--------|-----4--4----4----|-----4--4--------|--0----0----0--0--|
--4--------------|--5---------------|--4--------------|--2----2----2-----|
-----------------|------------------|-----------------|--3----3----3-----|
-----------------|------------------|-----------------|------------------|


  Q    Q    E  E     Q    Q    E  E     Q    Q    E  E     Q    Q    E  E   
--0----0----0--0--|--0----0----0--0--|--0----0----0--0--|--0----0----0--0--|
--1----1----1--1--|--1----1----1--1--|--1----1----1--1--|--0----0----0--0--|
--0----0----0--0--|--0----0----0--0--|--0----0----0--0--|--0----0----0--0--|
--2----2----2-----|--2----2----2-----|--2----2----2-----|--2----2----2--2--|
--3----3----3-----|--3----3----3-----|--3----3----3-----|--2----2----2-----|
------------------|------------------|------------------|--0----0----0-----|


  Q    Q    E  E     Q    Q    E  E     Q    Q    E  E     Q    Q    E  E   
--0----0----0--0--|--0----0----0--0--|--0----0----0--0--|--0----0----0--0--|
--0----0----0--0--|--0----0----0--0--|--0----0----0--0--|--1----1----1--1--|
--0----0----0--0--|--0----0----0--0--|--0----0----0--0--|--0----0----0--0--|
--2----2----2--2--|--2----2----2--2--|--2----2----2--2--|--2----2----2-----|
--2----2----2-----|--2----2----2-----|--2----2----2-----|--3----3----3-----|
--0----0----0-----|--0----0----0-----|--0----0----0-----|------------------|


  Q    Q    E  E     Q    Q    E  E     Q    Q    E  E     Q    Q    E  E   
--0----0----0--0--|--0----0----0--0--|--0----0----0--0--|--2----2----2--2--|
--1----1----1--1--|--1----1----1--1--|--1----1----1--1--|--3----3----3--3--|
--0----0----0--0--|--0----0----0--0--|--0----0----0--0--|--2----2----2--2--|
--2----2----2-----|--2----2----2-----|--2----2----2-----|--0----0----0-----|
--3----3----3-----|--3----3----3-----|--3----3----3-----|------------------|
------------------|------------------|------------------|------------------|


  Q    Q    E  E     Q    Q    E  E     Q    Q    E  E     E  E  Q    Q     
--2----2----2--2--|--2----2----2--2--|--2----2----2--2--|--------3----3----|
--3----3----3--3--|--3----3----3--3--|--3----3----3--3--|--------3----3----|
--2----2----2--2--|--2----2----2--2--|--2----2----2--2--|-----4--4----4----|
--0----0----0-----|--0----0----0-----|--0----0----0-----|--5---------------|
------------------|------------------|------------------|------------------|
------------------|------------------|------------------|------------------|


  E  E  H           E  E  Q    Q       E  E  H           E  E  Q    Q     
--------2--------|------------------|--------2--------|------------------|
--------3--------|--------5----5----|--------3--------|--------5----5----|
-----4--4--------|-----4--4----4----|-----4--4--------|-----4--4----4----|
--4--------------|--5---------------|--4--------------|--5---------------|
-----------------|------------------|-----------------|------------------|
-----------------|------------------|-----------------|------------------|


  E  E  H           E  E  Q    Q       E  E  H           E  E  Q    Q     
--------2--------|------------------|--------2--------|--------3----3----|
--------3--------|--------5----5----|--------3--------|--------3----3----|
-----4--4--------|-----4--4----4----|-----4--4--------|-----4--4----4----|
--4--------------|--5---------------|--4--------------|--5---------------|
-----------------|------------------|-----------------|------------------|
-----------------|------------------|-----------------|------------------|


  E  E  H           E  E  Q    Q       E  E  H           E  E  Q    Q     
--------2--------|------------------|--------2--------|--------3----3----|
--------3--------|--------5----5----|--------3--------|--------3----3----|
-----4--4--------|-----4--4----4----|-----4--4--------|-----4--4----4----|
--4--------------|--5---------------|--4--------------|--5---------------|
-----------------|------------------|-----------------|------------------|
-----------------|------------------|-----------------|------------------|


  E  E  H           E  E  Q    Q       E  E  H           E  E  Q    Q     
--------2--------|------------------|--------2--------|--------3----3----|
--------3--------|--------5----5----|--------3--------|--------3----3----|
-----4--4--------|-----4--4----4----|-----4--4--------|-----4--4----4----|
--4--------------|--5---------------|--4--------------|--5---------------|
-----------------|------------------|-----------------|------------------|
-----------------|------------------|-----------------|------------------|


  E  E  H           E  E  Q    Q       E  E  H           E  E  Q    Q     
--------2--------|------------------|--------2--------|--------0----0----|
--------3--------|--------5----5----|--------3--------|--------1----1----|
-----4--4--------|-----4--4----4----|-----4--4--------|--------2----2----|
--4--------------|--5---------------|--4--------------|-----2------------|
-----------------|------------------|-----------------|--0---------------|
-----------------|------------------|-----------------|------------------|


  E  E  Q    Q       Q    Q    Q       Q    Q    Q       E  E  Q    Q     
--------2----2----|--0----0----0----|--2----2----2----|--------0----0----|
--------3----3----|--1----1----1----|--3----3----3----|--------1----1----|
--------4----4----|--0----0----0----|--2----2----2----|--------2----2----|
-----4------------|--2----2----2----|--0----0----0----|-----2------------|
--2---------------|--3----3----3----|-----------------|--0---------------|
------------------|-----------------|-----------------|------------------|


  E  E  Q    Q       Q    Q    Q       Q    Q    Q       E  E  Q    Q     
--------2----2----|--0----0----0----|--2----2----2----|--------3----3----|
--------3----3----|--1----1----1----|--3----3----3----|--------3----3----|
--------4----4----|--0----0----0----|--2----2----2----|-----4--4----4----|
-----4------------|--2----2----2----|--0----0----0----|--5---------------|
--2---------------|--3----3----3----|-----------------|------------------|
------------------|-----------------|-----------------|------------------|


  E  E  H           E  E  Q    Q       E  E  H           E  E  Q    Q     
--------2--------|------------------|--------2--------|--------3----3----|
--------3--------|--------5----5----|--------3--------|--------3----3----|
-----4--4--------|-----4--4----4----|-----4--4--------|-----4--4----4----|
--4--------------|--5---------------|--4--------------|--5---------------|
-----------------|------------------|-----------------|------------------|
-----------------|------------------|-----------------|------------------|


  E  E  H           E  E  E  E  Q       H.                         
--------2--------|-------------------|---------------|-----------||
--------3--------|-----5--5--5--3----|---------------|-----------||
-----4--4--------|--------4--4--4----|--4------------|-----------||
--4--------------|--5----------------|--5------------|-----------||
-----------------|-------------------|---------------|-----------||
-----------------|-------------------|---------------|-----------||




Duration Legend
---------------
W - whole
H - half
Q - quarter
E - 8th
S - 16th
T - 32nd
X - 64th
. - note dotted
|-n-|  - n-tuplets


Tablature Legend
----------------
L - tied note
x - dead note
g - grace note
(n) - ghost note
> - accentuded note
NH - natural harmonic
AH - artificial harmonic
TH - tapped harmonic
SH - semi harmonic
PH - pitch harmonic
h - hammer on
p - pull off
b - bend
br - bendRelease
pb - preBend
pbr - preBendRelease
brb - bendReleaseBend
\n/ - tremolo bar dip
\n - tremolo bar dive
-/n - tremolo bar Release up
/n\ - tremolo bar inverted dip
/n - tremolo bar return
-\n - tremolo bar Release down
S - shift slide
s - legato slide
/ -  slide into from below or out of upwards
\ -  slide into from above or out of downwards
~ - vibrato
W - wide vibrato
tr - trill
TP - tremolo picking
T - tapping
S - slap
P - pop
< - fade in
^ - brush up
v - brush down
Tap to rate this tab
# A B C D E F G H I J K L M N O P Q R S T U V W X Y Z