Song name
# A B C D E F G H I J K L M N O P Q R S T U V W X Y Z

David Gilmour - Wish You Were Here tab

Hey guys this is my first solo... so I would be very happy if you can find errors. Enjoy!

David Gilmour in Royal Albert Hall - Wish You Were Here 
Second Solo (around 2:50 min)

e----------------------------------10/12-10-10-----------------|
B--10b12-(12)-(12)-(12)b10---10b12-----------10/12-10-8-8/10---|
G--------------------------------------------------------------|
D--------------------------------------------------------------|
A--------------------------------------------------------------|
E--------------------------------------------------------------|


e--------------------------------------------------------------|
B--10b12-(12)-(12)-(12)b13-(12)--9b10-8------------------------|  
G---------------------------------------7-7---7-7/9---7vvv-----| 
D-------------------------------------------9-------9----------|
A--------------------------------------------------------------|
E--------------------------------------------------------------|

e--------------------------------------------------------------|
B------8-8-10-10b12-10p8-10p8----------------------------------|
G--7/9------------------------9vv------------------------------|     
D--------------------------------------------------------------|
A--------------------------------------------------------------|
E--------------------------------------------------------------|


e--------12-----------------------------10---------------------|
B--10/12----12b14-12b14-10------8-10/12----12p10p8--10h12------| 
G---------------------------7/9--------------------------------|
D--------------------------------------------------------------|
A--------------------------------------------------------------|
E--------------------------------------------------------------|

e--------12----------------------------------------------------|
B--12/14----12b14-12b14--10--8---------------------------------|
G--------------------------------------------------------------|     
D--------------------------------------------------------------|
A--------------------------------------------------------------|
E--------------------------------------------------------------|



      h - hammer on 
      p - pull off 
      b - bend
      v - vibrato
      / - slide up
      \ - slide down
     ( )- Play note holding bend
Tap to rate this tab
# A B C D E F G H I J K L M N O P Q R S T U V W X Y Z