Song name
# A B C D E F G H I J K L M N O P Q R S T U V W X Y Z

David Gilmour - Out Of The Blue tab

Die! Die! Die!
Out Of the Blue
Die! Die! Die!


The fella uses some overdrive pedal (and maybe some distortion im not sure), similar to
a lot of Brit Indie bands tend to be using these days, especially Babyshambles ( on Pipe
I think Pete uses one). I find that the boost setting on a marshall blues breaker with 
turned to full works fine.

Intro
|  --0--3-3-3-3-3-3-3-3-3--10-10-10---0--3-3-3-3-3-3-3-3--10-10-10-10- |
|  --4--4-4-4-4-4-4-4-4-4--11-11-11---4--4-4-4-4-4-4-4-4--11-11-11-11- |
|  --0--5-5-5-5-5-5-5-5-5--12-12-12---0--5-5-5-5-5-5-5-5--12-12-12-12- |
|  ------------------------------------------------------------------- |
|  ------------------------------------------------------------------- |
|  ------------------------------------------------------------------- |

|  --0--3-3-3-3-3-3-3-3-3--10-10-10-10--0--3-3-3-3-3-3-3-3--10-10-10-10- |
|  --4--4-4-4-4-4-4-4-4-4--11-11-11-11--4--4-4-4-4-4-4-4-4--11-11-11-11- |
|  --0--5-5-5-5-5-5-5-5-5--12-12-12-12--0--5-5-5-5-5-5-5-5--12-12-12-12- |
|  --------------------------------------------------------------------- |
|  --------------------------------------------------------------------- |
|  --------------------------------------------------------------------- |

|  --0--3-3-3-3-3-3-3-3-3--10-10-10-10--0--3-3-3-3-3-3-3-3--10-10-10-10- |
|  --4--4-4-4-4-4-4-4-4-4--11-11-11-11--4--4-4-4-4-4-4-4-4--11-11-11-11- |
|  --0--5-5-5-5-5-5-5-5-5--12-12-12-12--0--5-5-5-5-5-5-5-5--12-12-12-12- |
|  --------------------------------------------------------------------- |
|  --------------------------------------------------------------------- |
|  --------------------------------------------------------------------- |

|  --0--3-3-3-3-3-3-3-3-3--10-10-10-10--0--3-3-3-3-3-3-3-3--10-10-10-10- |
|  --4--4-4-4-4-4-4-4-4-4--11-11-11-11--4--4-4-4-4-4-4-4-4--11-11-11-11- |
|  --0--5-5-5-5-5-5-5-5-5--12-12-12-12--0--5-5-5-5-5-5-5-5--12-12-12-12- |
|  --------------------------------------------------------------------- |
|  --------------------------------------------------------------------- |
|  --------------------------------------------------------------------- |

Verse(no guitar)

Refrain(“NO REGRETS!!!!”)

|  --0--3-3-3-3-3-3-3-3-3--10-10-10---1-1-1-1-1-1-1-1-1-1--5-5-5-5-5-5-5-5-5-5- |
|  --4--4-4-4-4-4-4-4-4-4--11-11-11---2-2-2-2-2-2-2-2-2-2--6-6-6-6-6-6-6-6-6-6- |
|  --0--5-5-5-5-5-5-5-5-5--12-12-12---3-3-3-3-3-3-3-3-3-3--7-7-7-7-7-7-7-7-7-7- |
|  ---------------------------------------------------------------------------- |
|  ---------------------------------------------------------------------------- |
|  ---------------------------------------------------------------------------- |

|  --0--3-3-3-3-3-3-3-3-3--10-10-10---1-1-1-1-1-1-1-1-1-1--5-5-5-5-5-5-5-5-5-5- |
|  --4--4-4-4-4-4-4-4-4-4--11-11-11---2-2-2-2-2-2-2-2-2-2--6-6-6-6-6-6-6-6-6-6- |
|  --0--5-5-5-5-5-5-5-5-5--12-12-12---3-3-3-3-3-3-3-3-3-3--7-7-7-7-7-7-7-7-7-7- |
|  ---------------------------------------------------------------------------- |
|  ---------------------------------------------------------------------------- |
|  ---------------------------------------------------------------------------- |

Verse(no guitar)

Refrain(“NO REGRETS!!!!”)

|  --0--3-3-3-3-3-3-3-3-3--10-10-10---1-1-1-1-1-1-1-1-1-1--5-5-5-5-5-5-5-5-5-5- |
|  --4--4-4-4-4-4-4-4-4-4--11-11-11---2-2-2-2-2-2-2-2-2-2--6-6-6-6-6-6-6-6-6-6- |
|  --0--5-5-5-5-5-5-5-5-5--12-12-12---3-3-3-3-3-3-3-3-3-3--7-7-7-7-7-7-7-7-7-7- |
|  ---------------------------------------------------------------------------- |
|  ---------------------------------------------------------------------------- |
|  ---------------------------------------------------------------------------- |

|  --0--3-3-3-3-3-3-3-3-3--10-10-10---1-1-1-1-1-1-1-1-1-1--5-5-5-5-5-5-5-5-5-5- |
|  --4--4-4-4-4-4-4-4-4-4--11-11-11---2-2-2-2-2-2-2-2-2-2--6-6-6-6-6-6-6-6-6-6- |
|  --0--5-5-5-5-5-5-5-5-5--12-12-12---3-3-3-3-3-3-3-3-3-3--7-7-7-7-7-7-7-7-7-7- |
|  ---------------------------------------------------------------------------- |
|  ---------------------------------------------------------------------------- |
|  ---------------------------------------------------------------------------- |

|  --0--3-3-3-3-3-3-3-3-3--10-10-10---1-1-1-1-1-1-1-1-1-1--5-5-5-5-5-5-5-5-5-5- |
|  --4--4-4-4-4-4-4-4-4-4--11-11-11---2-2-2-2-2-2-2-2-2-2--6-6-6-6-6-6-6-6-6-6- |
|  --0--5-5-5-5-5-5-5-5-5--12-12-12---3-3-3-3-3-3-3-3-3-3--7-7-7-7-7-7-7-7-7-7- |
|  ---------------------------------------------------------------------------- |
|  ---------------------------------------------------------------------------- |
|  ---------------------------------------------------------------------------- |

|  --0--3-3-3-3-3-3-3-3-3--10-10-10---1-1-1-1-1-1-1-1-1-1--5-5-5-5-5-5-5-5-5-5- |
|  --4--4-4-4-4-4-4-4-4-4--11-11-11---2-2-2-2-2-2-2-2-2-2--6-6-6-6-6-6-6-6-6-6- |
|  --0--5-5-5-5-5-5-5-5-5--12-12-12---3-3-3-3-3-3-3-3-3-3--7-7-7-7-7-7-7-7-7-7- |
|  ---------------------------------------------------------------------------- |
|  ---------------------------------------------------------------------------- |
|  ---------------------------------------------------------------------------- |

Bass Break(no guitar)

End Chorus(“Out of the Blue!…..Into the Black!”)

|  ------------------------------------------------------------------------------------ |
|  ------------------------------------------------------------------------------------ |
|  --7-h5-------7-h5-------7-h5-------7-h5-------7-h5-------7-h5-------7-h5-------7-h5- |
|  --7-h5-------7-h5-------7-h5-------7-h5-------7-h5-------7-h5-------7-h5-------7-h5- |
|  ------------------------------------------------------------------------------------ |
|  ------------------------------------------------------------------------------------ |

|  
|
|  
|
|  
|
|  
|
|  
|
|  
|

|  ------------------------------------------------------------------------------------ |
|  ------------------------------------------------------------------------------------ |
|  --7-h5-------7-h5-------7-h5-------7-h5-------7-h5-------7-h5-------7-h5-------7-h5- |
|  --7-h5-------7-h5-------7-h5-------7-h5-------7-h5-------7-h5-------7-h5-------7-h5- |
|  ------------------------------------------------------------------------------------ |
|  ------------------------------------------------------------------------------------ |

|  ------------------------------------------------------------------------------------ |
|  ------------------------------------------------------------------------------------ |
|  --7-h5-------7-h5-------7-h5-------7-h5-------7-h5-------7-h5-------7-h5-------7-h5- |
|  --7-h5-------7-h5-------7-h5-------7-h5-------7-h5-------7-h5-------7-h5-------7-h5- |
|  ------------------------------------------------------------------------------------ |
|  ------------------------------------------------------------------------------------ |

|  ------------------------------------------------------------------------------------ |
|  ------------------------------------------------------------------------------------ |
|  --7-h5-------7-h5-------7-h5-------7-h5-------7-h5-------7-h5-------7-h5-------7-h5- |
|  --7-h5-------7-h5-------7-h5-------7-h5-------7-h5-------7-h5-------7-h5-------7-h5- |
|  ------------------------------------------------------------------------------------ |
|  ------------------------------------------------------------------------------------ |


Neways, I hope the tab is decent, please rate it and if you like Die!Die!Die! or you’ve
some suggestions then email me on jamesdonaldson@hot-shot.com

Cheers

Legend:
Lr-let ring
ho-hammer on
po-pull of
b-bend
x-dead note
h(#)-harmonic(hash means fret no.)
HB-HOLD bend( till you change fret)
f-feedback(by using or amp or high volume)


www.myspace.com/diediedienz
www.diediedie.net
http://www.nzmusic.com/artist.cfm?i=817
http://www.amplifier.co.nz/artist/15705/die_die_die.html
Tap to rate this tab
# A B C D E F G H I J K L M N O P Q R S T U V W X Y Z