Song name
# A B C D E F G H I J K L M N O P Q R S T U V W X Y Z

David Meshow - One Man Band tab

-----------------------------------------------------------------------------
			     ONE MAN BAND - David MeShow
-----------------------------------------------------------------------------
Tabbed by: (GuItAr)(HeRo)
Email: dan_walker1@hotmail.com

Tuning: Standard

David Taps it all with one hand, slowly.

e|--------------------------------------------------------------------------|
B|--------------------------------------------------------------------------|
G|--------------------------------------------------------------------------|
D|--------------------------------------------------------------------------|
A|-9--8--9-----9--10--9--8--9------10--8--9--8--9--8--9--8--9--8--9---------|
E|----------8------------------11------------------------------------10--12-|

e|--------------------------------------------------------------------------|
B|--------------------------------------------------------------------------|
G|--------------------------------------------------------------------------|
D|--------------------------------------------------------------------------|
A|-10--9------8--9--8--9--8--9----------8--9--9--8--9--10--12--8--9---------|
E|--------12--------------------11--11-------------------------------10--12-|

e|--------------------------------------------------------------------------|
B|--------------------------------------------------------------------------|
G|--------------------------------------------------------------------------|
D|--------------------------------------------------------------------------|
A|-10--9--10--11--9--11--9--10-----11--8--9--10--11--9--8--8--8--8--8--8--9-|
E|------------------------------9-------------------------------------------|

e|--------------------------------------------------------------------------|
B|--------------------------------------------------------------------------|
G|--------------------------------------------------------------------------|
D|--------------------------------------------------------------------------|
A|-8--9--8--9--------8--9--8--9--8--9--8--9---------------------------------|
E|-------------8--9---------------------------------------------------------|

Comment, Rate, Enjoy.
Tap to rate this tab
# A B C D E F G H I J K L M N O P Q R S T U V W X Y Z