Song name
# A B C D E F G H I J K L M N O P Q R S T U V W X Y Z

Dax Riggs - Evil Friend tab

Hello :) this song is called Evil Friend; it's by Dax Riggs. The chords are really easy, 
although I can't really name them all lol, but I hope yall get the idea of wtf's goin 
on. So, if yall want, here's the youtube link: http://www.youtube.com/watch?v=M7cTBwU0K3E
:) Enjoy

x- Gently beat the string..
h- hammer
0- open (duh)



        Evil friend, ah ha, evil friend

        Evil friend, ah ha, evil friend


E|-x-----------0-------x--------x-----------|
H|-x-----------1-------x--------x-----------|
G|-5-----------2h2-----x--------x-----------|
D|-5-----------2h2-----5--------7-----------|
A|-3-----------0-------5--------7-----------|
E|-3-----------x-------3--------5-----------|


        It never ends at the death of things

        Love will swing, burn everything and sing,

        Ah ha, Evil friend


E|-x-----------0-------x--------x-----x-----x-----x-----x---------|
H|-x-----------1-------x--------x-----x-----x-----x-----x---------|
G|-5-----------2h2-----x--------x-----x-----x-----x-----x---------|
D|-5-----------2h2-----5--------7-----10----7-----5-----7---------|
A|-3-----------0-------5--------7-----10----7-----5-----7---------|
E|-3-----------x-------3--------5-----8-----5-----3-----5---------|

       Evil friend, ah ha, evil friend

       Evil friend, ah ha, evil friend


E|-x-----------0-------x--------x-----------|
H|-x-----------1-------x--------x-----------|
G|-5-----------2h2-----x--------x-----------|
D|-5-----------2h2-----5--------7-----------|
A|-3-----------0-------5--------7-----------|
E|-3-----------x-------3--------5-----------|


      There is starlight in your blood

      It seems there are shadows are wearing us,

      Ah ha, evil friend


E|-x-----------0-------x--------x-----x-----x-----x-----x---------|
H|-x-----------1-------x--------x-----x-----x-----x-----x---------|
G|-5-----------2h2-----x--------x-----x-----x-----x-----x---------|
D|-5-----------2h2-----5--------7-----10----7-----5-----7---------|
A|-3-----------0-------5--------7-----10----7-----5-----7---------|
E|-3-----------x-------3--------5-----8-----5-----3-----5---------|

      Evil friend, ah ha, evil friend

      Evil friend, ah ha, evil friend


E|-x-----------0-------x--------x-----------|
H|-x-----------1-------x--------x-----------|
G|-5-----------2h2-----x--------x-----------|
D|-5-----------2h2-----5--------7-----------|
A|-3-----------0-------5--------7-----------|
E|-3-----------x-------3--------5-----------|


      You knew rebirth but died again

      Evil friend

      Black-toothed that speaks no truth, na ah,

      Evil friend

      Burn everything and sing along, ah ha

      Evil friend


E|-x-----------0-------x--------x-----------|
H|-x-----------1-------x--------x-----------|
G|-5-----------2h2-----x--------x-----------|
D|-5-----------2h2-----5--------7-----------|
A|-3-----------0-------5--------7-----------|
E|-3-----------x-------3--------5-----------|

      Evil friend, ah ha, evil friend

      Evil friend, ah ha, evil friend


E|-x-----------0-------x--------x-----------|
H|-x-----------1-------x--------x-----------|
G|-5-----------2h2-----x--------x-----------|
D|-5-----------2h2-----5--------7-----------|
A|-3-----------0-------5--------7-----------|
E|-3-----------x-------3--------5-----------|

      We are night sky, we are God's eye,

      At the end of a lullaby,

      On the shore of tears yet to be cryed.


E|-x-----------0-------x--------x-----------|
H|-x-----------1-------x--------x-----------|
G|-5-----------2h2-----x--------x-----------|
D|-5-----------2h2-----5--------7-----------|
A|-3-----------0-------5--------7-----------|
E|-3-----------x-------3--------5-----------|

      We are, we are, night sky, night sky

      We are, we are, god's eye, God's eye,

      At the end of a lullaby,

      On the shore of tears yet to be cryed.


E|-x-----------0-------x--------x-----x-----x-----x-----x---------|
H|-x-----------1-------x--------x-----x-----x-----x-----x---------|
G|-5-----------2h2-----x--------x-----x-----x-----x-----x---------|
D|-5-----------2h2-----5--------7-----10----7-----5-----7---------|
A|-3-----------0-------5--------7-----10----7-----5-----7---------|
E|-3-----------x-------3--------5-----8-----5-----3-----5---------|

      We are, we are, night sky, night sky

      We are, we are, god's eye, God's eye,

      At the end of a lullaby,


E|-x-----------0-------x--------x-----x-----x--------|
H|-x-----------1-------x--------x-----x-----x--------|
G|-5-----------2h2-----x--------x-----x-----x--------|
D|-5-----------2h2-----5--------7-----10----7--------|
A|-3-----------0-------5--------7-----10----7--------|
E|-3-----------x-------3--------5-----8-----5--------|

      On the shore of tears yet to be cryed,

      On the shore of tears yet to be cryed,

      On the shore of tears yet to be cryed.

                      ---
|x-----x---------|  |
|x-----x---------|  |
|x-----x---------|  |
|5-----7----------- |        - play this [3] times. (on the shore of tears yet
|5-----7---------|  |                        to be cried.)
|3-----5---------|  |
                      ---



The tuning is STANDARD.. Atleast, what I tabbed out, is in standard tuning and it sounds good.

thank you :3
Tap to rate this tab
# A B C D E F G H I J K L M N O P Q R S T U V W X Y Z