Song name
# A B C D E F G H I J K L M N O P Q R S T U V W X Y Z

Dayglo Abortions - Dysfunctional Family tab

from corporate whores

riff 1                                                          end 2    end 1
|------------------------------------------------------------|---------|---------|
|------------------------------------------------------------|---------|---------|
|------------------------------------------------------------|---------|---------|
|------------------------------------------------------------|-6-66-66-|---------|
|-4-44-44-44332211-4-44-44-44332211-4-44-44-44332211-7-77-77-|-4-44-44-|-8-88-88-|
|-2-22-22----------2-22-22----------2-22-22----------5-55-55-|---------|-6-66-66-|


riff 2
|----------------------------------------------|
|----------------------------------------------|
|----------------------------------------------|
|----------------------------------------------|
|-44--5-44--5-44--5-77--5-44--5-44--5-77--7-77-|
|-22--3-22--3-22--3-55--3-22--3-22--3-55--5-55-|


riff 3
|----------------------------------|
|----------------------------------|
|----------------------------------|
|----------------------------------|
|----------------------------------|
|-00000000000044442222222222222222-|
Tap to rate this tab
 
# A B C D E F G H I J K L M N O P Q R S T U V W X Y Z