Guitaretab - guitar tabs
Song name
# A B C D E F G H I J K L M N O P Q R S T U V W X Y Z

Days Of The New - Enemy tab

----------------------------------------------------------------------------
			     Enemy -Days Of The New
----------------------------------------------------------------------------
Tabbed by:Twells
Email:tewells27@yahoo.com

Tuning:B,F#,C#,F#,A,C (low to High)

Note:This is the solo only and if your going to check it out at least rate and give me 
because it does take time to sit and play and then work out on tab.Enjoy!

  Outro/Solo  Both Guitars           RakeNotes                         Rake
e|----------------------------------------------------------------------------|
B|----------------------------------------------------------------------------|
G|------------------------------------------------3------5v--3v---------------|
D|--------------------3--5h3-----3h5----3V------0-----------------0-----------|
A|-----3--5h3-0--3h5----------5---------------0------------------x------------|
E|-5h7------------------------------------------------------------------------|

e|--------------------------------10b-H-8-------------------------------------|
B|-----------------------------------------9v---7/9\7----------0--------------|
G|-5--5/6---5--3b-----------------------------------------8---------7---------|
D|-----------------5---3-5---3--------------------------8---------7-----------|
A|----------------------------------------------------------------------------|
E|----------------------------------------------------------------------------|

e|----------------------------------------------------------------------------|
B|----------------------------------------------------------------------------|
G|-10--12---5/6------------0-3p0---------0p3p0---------0p3p0---0--------------|
D|-------------------------------0-------------0----0--------0----------------|
A|-----12---5/6--5-3-5/7------------5h7-----------5---------------------------|
E|----------------------------------------------------------------------------|

e|----------------------------------------------------------------------------|
B|------------------------------4--7--7b--5-4--5h4----4-----------------------|
G|--5/6\5-3-----5/6\5-3-----5/6---------------------6----6--5--3---5/6\5-3----|
D|-----------5----------5-----------------------------------------------------|
A|----------------------------------------------------------------------------|
E|----------------------------------------------------------------------------|
[ Tab from: http://www.guitaretab.com/d/days-of-the-new/119821.html ]
e|-------------------------------------12-15--15v--12--15-15b--12-------------|
B|--------------------------------9--------------------------------14--12-----|
G|---3----------------------0-7-----------------------------------------------|
D|-5---5--3h5h3---------------------------------------------------------------|
A|---------------5-3h5h3--0---------------------------------------------------|
E|----------------------------------------------------------------------------|
                                                                   Harmonic
e|---------------------------------------------------------------5--7-8--7----|
B|--14b-------------------------------9-7-----7-5-4--------------5-------7----|
G|-----------3------3--3/5---3--5/7---9-7-5/7-7-5-3--------------5-------7----|
D|---------5------5-----------------------------------7----------5-------7----|
A|-------6------6-------------------------------------7-----------------------|
E|----------------------------------------------------------------------------|
                    Harm.                                                 Harm.
e|-8-10--12-----5--7-8--7--8-10-----------5--7-8--7--8--10--12/15--12---------|
B|-------12-----5-------7-----------------5-------7---------------------------|
G|-------12-----5-------7---------12------5-------7---------------------------|
D|-------12-----5-------7---------12------5-------7---------------------------|
A|----------------------------------------------------------------------------|
E|----------------------------------------------------------------------------|

e|--5--7-8--7-8-10------------------------------------------------------------|
B|--5-------7-----------------------------------------------------------------|
G|--5-------7--------17--18h17-15-------17-18-17-15------------17-18-17--15---|
D|--5-------7----------------------17----------------17-15-17-----------------|
A|----------------------------------------------------------------------------|
E|----------------------------------------------------------------------------|

e|-----------------------------------------------------------------17----15---|
B|----------------------------------------------------------------------------|
G|------15---------------17--18-17-15----17--18--17-15-----15--15-----14------|
D|--17------17--15---17---------------17----------------17--------------------|
A|----------------------------------------------------------------------------|
E|----------------------------------------------------------------------------|

e|-----13----12---------------------------------------------------------------|
B|----------------------------------------------------------------------------|
G|-12-----10--------17-18-17-15-----17-18-17-15---------17-18-17-15-----15----|
D|-------------------------------17-------------17--15--------------17--------|
A|----------------------------------------------------------------------------|
E|----------------------------------------------------------------------------|
                                     Then Fades into Wepon and The Wound
e|----------------------------------------------------------------------------|
B|----------------------------------------------------------------------------|
G|-----------15---------------------------------------------------------------|
D|--17-15-17------17--15-17-15-16-17------------------------------------------|
A|----------------------------------------------------------------------------|
E|----------------------------------------------------------------------------|

| /  slide up
| \  slide down
| h  hammer-on
| p  pull-off
| ~  vibrato
| +  harmonic
| x  Mute note
=============================================================
Related for Enemy tab
Advertisement will be closed in 10 seconds