Guitaretab - guitar tabs
Song name
# A B C D E F G H I J K L M N O P Q R S T U V W X Y Z

Days Of The New - Freak tab

			     SONG NAME - Freak
-----------------------------------------------------------------------
Tabbed by:Twells
Email:tewells27@hotmail.com

Tuning:Db Ab Db Gb Bb Db

First time tabbing so hope it works for you.One of my Favorite Songs.Only one other tab
here so I thought to give my way to play it Just watch Him play it.Not hard but here it
anyways.I put the basic structure up of how it goes.If you want to know anything else 
ask.Iíll post more songs as I get around to it From Meeks.Enjoy!!

e|---------------------------------------------------------------------|
B|----------------3----------------------------------------------------|
G|---------2--------2----2-----------2-----------2---------------------|
D|------------0-------0-----------0-----------0------------------------|
A|---------------------------------------------------------------------|
E|----0-----------------------5-----------6----------------------------|

e|---------------------------------------------------------------------|
B|----------------3----------------------------------------------------|
G|---------2---------2----2--------------------------------------------|
D|------------0---------0------------0---------0-----------------------|
A|--------------------------------0----------------0-------------------|
E|----0------------------------3---------3\5---------------------------|

e|---------------------------------------------------------------------|
B|----------------3----------------------------------------------------|
G|---------2---------2------------------0-------0----------------------|
D|------------0----------0--0--------5-------5------5------------------|
A|------------------------------/-7--------6-----------6---------------|
E|----0----------------------------------------------------------------|
[ Tab from: http://www.guitaretab.com/d/days-of-the-new/163673.html ]
e|---------------------------------------------------------------------|
B|---------------------------------------------------------------------|
G|--------------------------------------------2------------------------|
D|--------0------0-------0-------0---------0---------------------------|
A|-----0-------0-------0-------0--------0------------------------------|
E|--5--------6------3--------5-------0---------------------------------|

e|----------------------------------------------------------------------|
B|---------------3------------------------------------------------------|
G|------2----------2----2---------2-------------------------------------|
D|---------0---------0----------2-2-------3-----7-----------------------|
A|---------------------------0----------3-3-----5-----------------------|
E|--0---------------------------------3---------------------------------|

CHORUS CHORDS

e|---------------------------------------------------------------------|
B|---------------------------------------------------------------------|
G|---------------------------------------------------------------------|
D|--6----3---0---------------------------------------------------------|
A|--6----3---0---------------------------------------------------------|
E|--6----3---0---------------------------------------------------------|

BRIDGE CHORDS
G5,F5,G5,F5,D5,Ab5
e|---------------------------------------------------------------------|
B|---------------------------------------------------------------------|
G|---------------------------------------------------------------------|
D|---------------------------------------------------------------------|
A|---------------------------------------------------------------------|
E|---------------------------------------------------------------------|

e|---------------------------------------------------------------------|
B|---------------------------------------------------------------------|
G|---------------------------------------------------------------------|
D|---------------------------------------------------------------------|
A|---------------------------------------------------------------------|
E|---------------------------------------------------------------------|


| /  slide up
| \  slide down
| h  hammer-on
| p  pull-off
| ~  vibrato
| +  harmonic
| x  Mute note
===============================================================================
Related for Freak tab