Song name
# A B C D E F G H I J K L M N O P Q R S T U V W X Y Z

De Andre - Sally tab

INTRO

e|----------------------------------------------------|
B|5-6-5-6^8--6-5--------------------------------------|
G|--------------7-5--7-5-7^9--7-5-4--5-7-5------------|
D|---------------------------------7------5--7-5------|
A|----------------------------------------------5-7---|
E|----------------------------------------------------|

e|----------------------------------------------------|
B|5-6-5-6^8--6-5--------------------------------------|
G|--------------7-5--7-5-7^9--7-5-4--5-7-5---5-4-5----|
D|---------------------------------7------5-----------|
A|----------------------------------------------------|
E|----------------------------------------------------|


G            D    C            G
Mia madre mi disse non devi giocare
C       G      D     G
con gli zingari  nel bosco
             D     C            G
Mia madre mi disse  non devi giocare
C       G    D7     G
con gli zingari nel bosco.
      Em        C     D          G
Ma il bosco era scuro l'erba gia'verde
C        G     D7            G
li venne Sally   con un tamburello
      Em        Bm      C        G
ma il bosco era scuro l'erba gia'alta
C          G         D7       G
dite a mia madre che non tornero'.

intro

Andai verso il mare senza barche per traversare
spesi cento lire per un pesciolino d'oro
andai verso il mare senza barche per traversare
spesi cento ire per un pesciolino d'oro.
Gli montai sulla groppa sparii in un baleno
andate a dire a Sally che non tornero'
gli montai sulla groppa sparii in un baleno
dite a mia madre che non tornero'.

intro

Vicino alla citta'trovai Pilar del mare
con due goccie d' eroina s'addormentava il cuore
vicino alle roulottes trovai Pilar dei meli
bocca sporca di mirtilli un coltello in mezzo ai seni
Mi svegliai sulla quercia l'assassino era fuggito
dite al pesciolino che non tornero'
Mi guardai nello stagno l'assassino s'era gia'lavato
dite a mia madre che non tornero'.

assolo

Seduto sotto un ponte si annusava il re dei topi
sulla strada le sue bambole bruciavano copertoni
sdraiato sotto il ponte si adorava il re dei topi
sulla strada le sue bambole adescavano i signori
Mi parlo'sulla bocca mi dono'un braccialetto
dite alla quercia che non tornero'
Mi bacio'sulla bocca mi propose il suo letto
dite a mia madre che non tornero'.

intro

   D         C       G
Mia madre mi disse non devi giocare
C       G      D7     G
con gli zingari   nel bosco
      Em        Bm      C        G
Ma il bosco era scuro l'erba gia'verde
C        G         D7      G
li venne Sally con un tamburello

assolo
Tap to rate this tab
 
# A B C D E F G H I J K L M N O P Q R S T U V W X Y Z