Song name
# A B C D E F G H I J K L M N O P Q R S T U V W X Y Z

De Andre - La Guerra Di Piero tab

De Andre - La guerra di Piero

e:-5-6-5---------5----------------------55-5-6---------5----------------|
B:-------8-5-5-8---8-6------5-6-8888-6-8--------8-5-5-8---8-6-----------|
G:----------------------7-7-----------------------------------7---------|
D:----------------------------------------------------------------------|
A:----------------------------------------------------------------------|
E:----------------------------------------------------------------------|


e:--------66-5--------------------------------555-6666-6-5-----------|
B:---5-6--------8-6-5--------5-6--88-8-6-5-----------------8---------|
G:-7-------------------77--7---------------77-----------------77-----|
D:-------------------------------------------------------------------|
A:-------------------------------------------------------------------|
E:-------------------------------------------------------------------|

e:--555-6666-6-5---------------------------------------------555-6666-5-----|
B:---------------8-66-6-5-6-88-8-6-5--------5-6-888-8-6-5---------------8---|
G:------------------------------------77--7---------------77--------------77|
D:--------------------------------------------------------------------------|
A:--------------------------------------------------------------------------|
E:--------------------------------------------------------------------------|

e:-555-6666-5----------------------------------------------------------------|
B:------------8-66-6-5-6-88-8-6-5--------------------------------------------|
G:--------------------------------77-----------------------------------------|
D:---------------------------------------------------------------------------|
A:---------------------------------------------------------------------------|
E:---------------------------------------------------------------------------|
Tap to rate this tab
# A B C D E F G H I J K L M N O P Q R S T U V W X Y Z