Song name
# A B C D E F G H I J K L M N O P Q R S T U V W X Y Z

Dead Identities - Scared tab

-------------------------------------------------------------------------------
			     S.c.a.r.e.d. - Dead IDentities
-------------------------------------------------------------------------------

http://www.deadidentities.com/ more Dead IDentities for ya :)

Tabbed by: TheTroy
Tuning: Half-Step Down.....

Intro X4
e|---------------------------------------------------------------------------|
B|---------------------------------------------------------------------------|
G|---------------------------------------------------------------------------|
D|---------------------------------------------------------------------------|
A|-6/7-7-7-9/10-10-10-6/7-7-7-9/10-10-10-------------------------------------|
E|---------------------------------------------------------------------------|

Pre-Verse X2
e|---------------------------------------------------------------------------|
B|---------------------------------------------------------------------------|
G|---------------------------------------------------------------------------|
D|-------------------------------------------------------------------2~~~----|
A|-7-7-10-7-5-5-9-5-3-3-7-3-2-0-----7-7-10-7-5-5-9-5-3-3-7-3-2-0-----2~~~----|
E|------------------------------3-2------------------------------3-2-0~~~----|

Pre Verse pt2
e|---------------------------------------------------------------------------|
B|---------------------------------------------------------------------------|
G|-----------------2-2-2-2-4-4-4-4-----------------2-2-2-2-4-4-4-4-----------|
D|-2-2-2-2-5-5-5-5-2-2-2-2-4-4-4-4-2-2-2-2-5-5-5-5-2-2-2-2-4-4-4-4-2~~~------|
A|-2-2-2-2-5-5-5-5-0-0-0-0-2-2-2-2-2-2-2-2-5-5-5-5-0-0-0-0-2-2-2-2-2~~~------|
E|-0-0-0-0-3-3-3-3-----------------0-0-0-0-3-3-3-3-----------------0~~~------|

Verse X2
e|---------------------------------------------------------------------------|
B|---------------------------------------------------------------------------|
G|---------------------------------------------------------------------------|
D|-------------------2-222222-4-444444---------------------------------------|
A|-2-222222-5-555555-0-000000-2-222222---------------------------------------|
E|-0-000000-3-333333---------------------------------------------------------|
     ......   ......   ......   ......

Chorus
e|---------------------------------------------------------------------------|
B|---------------------------------------------------------------------------|
G|---------------------------------------------------------------------------|
D|-2-2-2-4-5-5-5-6-7-7-7-9-10-10-10-10---------------------------------------|
A|-2-2-2-4-5-5-5-6-7-7-7-9-10-10-10-10---------------------------------------|
E|-0-0-0-2-3-3-3-4-5-5-5-7-8--8--8--8----------------------------------------|

repeat Pre Verse pt2

repeat Verse

Chorus

Bridge
e|---------------------------------------------------------------------------|
B|-2-2-2-2-2-2-2-2-4-4-4-4-4-4-4-4-------------------------------------------|
G|-2-2-2-2-2-2-2-2-4-4-4-4-4-4-4-4-------------------------------------------|
D|-2-2-2-2-2-2-2-2-4-4-4-4-4-4-4-4-------------------------------------------|
A|-0-0-0-0-0-0-0-0-2-2-2-2-2-2-2-2-------------------------------------------|
E|---------------------------------------------------------------------------|

play Chorus to end

Pre-Verse is played in background


************************************

| /   slide up
| \   slide down
| h   hammer-on
| p   pull-off
| ~   vibrato
| +   harmonic
| x   Mute note
| b   Bend
| pb  Pre-bend
| br  Bend release
| pbr Pre-bend release
| brb Bend release bend

************************************
Tap to rate this tab
 
# A B C D E F G H I J K L M N O P Q R S T U V W X Y Z