Song name
# A B C D E F G H I J K L M N O P Q R S T U V W X Y Z

Dead Identities - Got It Good tab

-------------------------------------------------------------------------------
			   Got It Good - Dead Identities
-------------------------------------------------------------------------------

http://www.deadidentities.com/ here ya go UG :)

Tabbed by: TheTroy
Tuning: Standard

haven't done one of these in a long time. hope its not rusty.

Intro X4
e|---------------------------------------------------------------------------|
B|---------------------------------------------------------------------------|
G|---------------------------------------------------------------------------|
D|----3----4-4-4-3-----------------------------------------------------------|
A|-4--1-2--2-2-2-1------44---------------------------------------------------|
E|-2----0----------0-1--22---------------------------------------------------|

Verse
e|---------------------------------------------------------------------------|
B|---------------------------------------------------------------------------|
G|--------------------------------------666-666-111111-111111-444-444--------|
D|----------------------444-66--444-444-666-666-111111-111111-444-444-444-444|
A|----------2~----------222-44--444-444-444-444-9-9-9--9-9-9--222-222-444-444|
E|-2~-1~-0~----2~-1~-0~---------222-222-------------------------------222-222|

e|---------------------------------------------------------------------------|
B|---------------------------------------------------------------------------|
G|-666-666-4~~~-66-----------------------------------------------------------|
D|-666-666-4~~~-66-----------------------------------------------------------|
A|-444-444-2~~~-44-----------------------------------------------------------|
E|---------------------------------------------------------------------------|

Chorus
e|-----------------------------------------|--|-44444444-22222222------------|
B|-------------------9--9-9--9-9-9--4-44-66|--|-44444444-44444444------------|
G|----------6-66-666-10-1010-101010-4-44-66|--|-44444444-44444444------------|
D|-4-44-444-6-66-666-10-1010-101010-4-44-66|X2|-66666666-44444444------------|
A|-4-44-444-4-44-444-8--8-8--8-8-8--2-22-44|--|-66666666-22222222------------|
E|-2-22-222--------------------------------|--|-44444444---------------------|

Repeat Intro

Repeat Verse

Repeat Chorus

Bridge - ok, so im am not good at all with figuring out this style of chords
going on here, so sorry but this is my attempt :/
e|---------------------------------------------------------------------------|
B|-2-2-2-2-0-0-0-0-2-2-2-2-0-0-0-0-2-2-2-2-0-0-0-0-2-2-2-2-0-0-0-0-2-2-2-2---|
G|-3-3-3-3-x-x-x-x-3-3-3-3-x-x-x-x-3-3-3-3-x-x-x-x-3-3-3-3-x-x-x-x-3-3-3-3---|
D|---------4-4-4-4---------4-4-4-4---------4-4-4-4---------4-4-4-4-----------|
A|---------------------------------------------------------------------------|
E|---------------------------------------------------------------------------|

Solo - Guitar 2 plays chorus in the background. So i play this, its a small variation
of what the actual solo is but i think it sounds cooler
e|---------------------------------------------------------------------------|
B|-11b12r11-----11b12r11-----11b12r11-----12p11h12p11h12/13\12-----12p11h12--|
G|----------11~----------11~----------11~----------------------11~-----------|
D|---------------------------------------------------------------------------|
A|---------------------------------------------------------------------------|
E|---------------------------------------------------------------------------|

e|-----------------------------------------------------------11-11-11-11-13-13
B|-/13\12p11h12/13----13----13----13----12p11h12/13\12p11h12-----------------|
G|-----------------11----11----11----11--------------------------------------|
D|---------------------------------------------------------------------------|
A|---------------------------------------------------------------------------|
E|---------------------------------------------------------------------------|

Play Chorus

End with Intro

 Finished.
************************************

| /   slide up
| \   slide down
| h   hammer-on
| p   pull-off
| ~   vibrato
| +   harmonic
| x   Mute note
| b   Bend
| pb  Pre-bend
| br  Bend release
| pbr Pre-bend release
| brb Bend release bend

Tap to rate this tab
 
# A B C D E F G H I J K L M N O P Q R S T U V W X Y Z