Song name
# A B C D E F G H I J K L M N O P Q R S T U V W X Y Z

Dead Kennedys - Buzzbomb tab

Dead Kennedys - Buzzbomb
 ABOUT 80
% RIGHT :-( ITS A START

G|--------------------------------------|
D|--------------------------------------|
A|-----55----55----66----66----55----55-|
E|--33----33----44----44----33----33----|

  PLAY ALOT
G|------------------------------------------------------------|
D|----44------44--------33------33----------------------------|
A|-22-----22---------11------11----555555--33333--2222--11111-|
E|------------------------------------------------------------|

G|-------------------------------------------------------------|
D|-------------------------------------------------------------|
A|-----22-----22--------------99--99---1010---1010----99----99-|
E|-00------00-7--77----77---88------88------77----77/----------|

G|--------------------------------------------------------------------|
D|--------------------------------------------------------------------|
A|-----55-----55---------1212------1212----1010----1010---------------|
E|--33-----33/10---1010-------1010------88------88-------77777777777--|
Tap to rate this tab
# A B C D E F G H I J K L M N O P Q R S T U V W X Y Z