Song name
# A B C D E F G H I J K L M N O P Q R S T U V W X Y Z

Dead Kennedys - California Uber Alles tab

-------------------------------------------------------------------------------
			             California Uber Alles- Dead Kennedys
-------------------------------------------------------------------------------
Tabbed by:Eric G.
Email: duh4994@verizon.net

Tuning: tune down one half step

          bass plays main riff
        
intro riff                                                             2x
e|--------------------------------------------------------------------------|
B|--------------------------------------------------------------------------|
G|--------------------------------------------------------------------------|
D|--------------------------------------------------------------------------|
A|------7~~-----8~~----10--8--7---------------------------------------------|
E|--------------------------------------------------------------------------|

 verse                                5x                        6th time
e|-----------------------------------------|--------------------------------|
B|-----------------------------------------|--------------------------------|
G|---9-x-x-9-x-x-9-9---10-x-x10-x-x-12-10--|---9-9-9-9-9--------------------|
D|---9-x-x-9-x-x-9-9---10-x-x10-x-x-12-10--|---9-9-9-9-9---9-9-9-101010-9-9-|
A|---7-x-x-7-x-x-7-7----8-x-x-8-x-x-10--8--|---7-7-7-7-7---9-9-9-101010-9-9-|
E|-----------------------------------------|---------------7-7-7--8-8-8-7-7-|

                   3x                                                    2x
e|-------------------------|------------------------------------------------|
B|-------------------------|------------------------------------------------|
G|---9------10----12--10---|----9-9-9-9-9-9---7-7-7-------------------------|
D|---9------10----12--10---|----9-9-9-9-9-9---7-7-7---7-7-7-----------------|
A|---7-------8----10---8---|----7-7-7-7-7-7---5-5-5---7-7-7-----------------|
E|-------------------------|--------------------------5-5-5-----------------|

chorus " california"    "uber alles"     "california  uber alles"            
                                                                    2x
e|--------------------------------------------------------------------------|
B|--------------------------------------------------------------------------|
G|---9--9-----------9--9-------------9--9-9-9-9-9-----14-14-14-14-14-14-----|
D|---9--9-----------9--9-------------9--9-9-9-9-9-----14-14-14-14-14-14-----|
A|---7--7-----------7--7-------------7--7-7-7-7-7-----12-12-12-12-12-12-----|
E|--------------------------------------------------------------------------|
  
california          ohh oh   oh ......                                     2x
e|--------------------------------------------------------------------------|
B|--------------------------------------------------------------------------|
G|---9--9-9-9-9-9----7-7-7--------------------------------------------------|
D|---9--9-9-9-9-9----7-7-7----8-8-\-5---------------------------------------|
A|---7--7-7-7-7-7----5-5-5----8-8-\-5---------------------------------------|
E|----------------------------6-6-\-3---------------------------------------|

verse riff then chorus again

breakdown  slower                                  2x     palm mute 4x 
e|--------------------------------------------------------------------------|
B|--------------------------------------------------------------------------|
G|--------------------------------------------------------------------------|
D|--------------------------------------------------------------------------|
A|-----7--7-7--7--7-7-----5-5-5---------------------------------------------|
E|---------------------------------6b-6-----3-------------------------------|

   gradually increase speed
e|--------------------------------------------------------------------------|
B|--------------------------------------------------------------------------|
G|----9-9-9-9-9-9------7-7-7------------------------------------------------|
D|----9-9-9-9-9-9------7-7-7---8-8----5-------------------------------------|
A|----7-7-7-7-7-7------5-5-5---8-8----5-------------------------------------|
E|-----------------------------6-6----3-------------------------------------|

outro                                                             2x
e|-------------------------------------------|------------------------------|
B|-------------------------------------------|------------------------------|
G|---9--999-9-999----7-777----12-12-12---777-|--9---999---------------------|
D|---9--999-9-999----7-777----12-12-12---777-|--9---999---------------------|
A|---7--777-7-777----5-555----10-10-10---555-|--7---777---------------------|
E|-------------------------------------------|------------------------------|


| /  slide up
| \  slide down
| h  hammer-on
| p  pull-off
| ~  vibrato
| +  harmonic
| x  Mute note
=============================================================
Tap to rate this tab
 
# A B C D E F G H I J K L M N O P Q R S T U V W X Y Z