Song name
# A B C D E F G H I J K L M N O P Q R S T U V W X Y Z

Dead Sara - Monumental Holiday tab

Amazing in-your face song by Dead Sara. Here are all the main parts.
Tabbed by: d.c.guitar
Tuning: Standard

Intro/Chorus 
|--------------------------------------|
|--------------------------------------|
|--------------------------------------|
|--------------------------------------|     4x
|--------------------------------------|
|---5--7---5--7~----5--7---5--7/9--0---|

Verse:
|-------------|
|-------------|
|-------------|     3x
|-------------|
|-------------|
|---7/9--0----|

|---------------------------------------------|
|---------------------------------------------|
|---------------------------------------------|
|---------------------------------------------|     1x
|---------------------------------------------|
|---5--7---5--7~----5--7---5--7/9--0----------|


PreChorus: (Last one changes, listen to the song and feel it)
|---------------------------------------------------------|
|--10-12-10-12-10-12-10-12-10-12-10-12-10-12-10-12~~------|
|---------------------------------------------------------|     4x
|---------------------------------------------------------|
|---------------------------------------------------------|
|---------------------------------------------------------|

Bridge:
|-------------|
|-------------|
|-------------|     8x
|------4------|
|------2------|
|-------------|

|---------------------------------------------|
|---------------------------------------------|
|---------------------------------------------|
|---------------------------------------------|     2x
|---2~~~\12~~~/7~~~5~~~-----------------------|
|---------------------------------------------|

|-----------------------------------|
|-----------------------------------|
|-----------------------------------|
|---4----14-----9---7---------------|     2x
|---2~~~\12~~~/7~~~5~~~-------------|
|-----------------------------------|
Tap to rate this tab
# A B C D E F G H I J K L M N O P Q R S T U V W X Y Z