Song name
# A B C D E F G H I J K L M N O P Q R S T U V W X Y Z

Death In Vegas - Aisha tab

artist: death in vegas
song title: aisha
album: the contino sessions
tabbed by: shlomi avraham(meir007@inter.net.il)


w\ distortion....

pattern 1:

      F#5    C#sus4

e |------------------------------------------|
B |------------------------------------------|
G |------------------------------------------|
D |--4-4-4--4-4-4-4-4--4-4-4-4-4--4-4-4-4-4--|
A |--4-4-4--4-4-4-4-4--4-4-4-4-4--4-4-4-4-4--|
E |--2-2-2--2-0-0-2-2--2-0-0-2-2--2-0-0-2-2--|


then at 2:30min it changes to pattern 2:

      E5

e |------------------------------------------|
B |------------------------------------------|
G |------------------------------------------|
D |--2-2-2--2-0-0-2-2--2-0-0-2-2--2-0-0-2-2--|
A |--2-2-2--2-2-2-2-2--2-2-2-2-2--2-2-2-2-2--|
E |--0-0-0--0-0-0-0-0--0-0-0-0-0--0-0-0-0-0--|


and at 3:00min it changes back to pattern 1 accompanied by this guitar riff :


e |---------------------------|
B |---------------------------|
G |--11-13-11-13-14-16-14-13--|
D |---------------------------|
A |---------------------------|
E |---------------------------|
Tap to rate this tab
 
# A B C D E F G H I J K L M N O P Q R S T U V W X Y Z