Song name
# A B C D E F G H I J K L M N O P Q R S T U V W X Y Z

Death - Spiritual Healing tab

#----------------------------------PLEASE NOTE---------------------------------#
#This file is the author's own work and represents their interpretation of the #
#song. You may only use this file for private study, scholarship, or research. #
#------------------------------------------------------------------------------#

SPIRITUAL HEALING
As recorded by Death
(From the 1990 Album SPIRITUAL HEALING)

Transcribed by Jerad Yarborough wordman27@yahoo.com
	

Words and Music by C. Schuldiner

Gtr I (D G C F A D) - 'Chuck Schuldiner rhythm '
Gtr II (D G C F A D) - 'James Murphy rhythm'
Gtr III (D G C F A D) - 'Chuck Schuldiner lead'
Gtr IV (D G C F A D) - 'James Murphy lead'
Gtr V (D G C F A D) - 'Lead harmonies'

   Intro
    Q=120
    A5
   4/4
    Gtr I
       T    T    T    T    T    T    T    T
    S  S S  S S  S S  S S  S S  S S  S S  S
||------------------------------------------|
||o-----------------------------------------|
||------------------------------------------|
||---------------------------------------11p|
||o-5h12p7h12p8h12p5h12p7h12p8h12p5h12p7----|
||------------------------------------------|
|
|   Gtr II
|   W
||------------------------------------------|
||o-----------------------------------------|
||------------------------------------------|
||------------------------------------------|
||o-7---------------------------------------|
||--5---------------------------------------|


  C#5            G#5            C5
     T    T    T    T    T    T    T
  S  S S  S S  S S  S S  S S  S S  S E  4x
|---------------------------------------||
|--------------------------------------o||
|---------------------------------------||
|-4h11p6h11p7----------------10p3h10p5--||
|-------------11p4h11p6h11p7-----------o||
|---------------------------------------||
|
| Q.             Q.             Q       4x
|---------------------------------------||
|--------------------------------------o||
|---------------------------------------||
|-6-----------------------------5-------||
|-4--------------6--------------3------o||
|----------------4----------------------||


   Verse
    $
          F5        F5  G5  G#5       F5        G#5 G5  F5
   6/4
    Gtrs I, II
    PM--|   PM----|   PM  PM    PM--|   PM----|   PM  PM
    E E E E S S E E E E E E E   E E E E S S E E E E E E E  6x
||----------------------------|----------------------------||
||o---------------------------|---------------------------o||
||----------------------------|----------------------------||
||----------------------------|----------------------------||
||o-------3---------3---5---6-|-------3---------6---5---3-o||
||--0-0-0-1-0-0-0-0-1-0-3-0-4-|-0-0-0-1-0-0-0-0-4-0-3-0-1--||


   Pre-Chorus
    Q=102
    F#5     (C#) F5   G5
   4/4
            ~           PM|   PM
    H.      Q    H    E S S E E  4x
||-------------|-----------------||
||o------------|----------------o||
||-------------|-----------------||
||-------------|-----------------||
||o-4-------4--|-3----5-----5---o||
||--2----------|-1----3-3-3-3-3--||


  Q=180
  F#5                                C#5
  Gtr I
  PM-----------------------------|     PM-------------------------|
  S S S S S  S S S S S S S S S S S   E S S S  S S S S S S S S S S S
|----------------------------------|--------------------------------|
|----------------------------------|--------------------------------|
|----------------------------------|--------------------------------|
|----------------------------------|-6------------------------------|
|----------------------------------|-4------------------------------|
|-2-2-2-2-2--2-2-2-2-2-2-2-2-2-2-2-|---3-3-3--3-3-3-3-3-3-3-3-3-3-3-|
|
| Gtr II
| E   E   H.                         E E   H.
|----------------------------------|--------------------------------|
|----------------------------------|--------------------------------|
|----------------------------------|--------------------------------|
|----------------------------------|-6------------------------------|
|-4--------------------------------|-4------------------------------|
|-2--------------------------------|--------------------------------|


  D5                               C#5            C5
    PM-------------------------|     PM---------|   PM---------|
  E S S S  S S S S S S S S S S S   E S  S S S S S E S  S S S S S
|--------------------------------|--------------------------------|
|--------------------------------|--------------------------------|
|--------------------------------|--------------------------------|
|-7------------------------------|-6--------------5---------------|
|-5------------------------------|-4--------------3---------------|
|---5-5-5--5-5-5-5-5-5-5-5-5-5-5-|---4--4-4-4-4-4---3--3-3-3-3-3--|
|
| E E   H.                         E Q.           E Q.
|--------------------------------|--------------------------------|
|--------------------------------|--------------------------------|
|--------------------------------|--------------------------------|
|-7------------------------------|-6--------------5---------------|
|-5------------------------------|-4--------------3---------------|
|--------------------------------|--------------------------------|


    (F#)
    Gtrs I, II
    PM----------------------------|
    S S S S S S S S S S S S S S S S
||----------------------------------|
||o---------------------------------|
||----------------------------------|
||----------------------------------|
||o---------------------------------|
||--2-2-2-2-2-2-2-2-2-2-2-2-2-2-2-2-|


  C#(G)                           D5(A)
    PM------------------------|     PM------------------------|
  E S S S S S S S S S S S S S S   E S S S S S S S S S S S S S S
|-------------------------------|--------------------------------|
|-------------------------------|--------------------------------|
|-------------------------------|--------------------------------|
|-6-----------------------------|-7------------------------------|
|-4-----------------------------|-5------------------------------|
|---3-3-3-3-3-3-3-3-3-3-3-3-3-3-|---5-5-5-5-5-5-5-5-5-5-5-5-5-5--|


  1.,2.,3.,4.                     5.
  C#(G#)        C5(G)             C#(G#)        C5
    PM--------|   PM--------|       PM--------|
  E S S S S S S E S S S S S S  5x E S S S S S S E E Q
|------------------------------||----------------------|
|-----------------------------o||----------------------|
|------------------------------||----------------------|
|-6-------------5--------------||-6-------------5------|
|-4-------------3-------------o||-4-------------3------|
|---4-4-4-4-4-4---3-3-3-3-3-3--||---4-4-4-4-4-4--------|


    Q=194
    (G#)                              (Eb)            (E)
    PM--------------------------------------------------------------|
    S S S S S S S S S S S S S S S S   S S S S S S S S S S S S S S S S
||----------------------------------|----------------------------------|
||o---------------------------------|----------------------------------|
||----------------------------------|----------------------------------|
||----------------------------------|----------------------------------|
||o---------------------------------|-6-6-6-6-6-6-6-6-7-7-7-7-7-7-7-7--|
||--4-4-4-4-4-4-4-4-4-4-4-4-4-4-4-4-|----------------------------------|


  (G)
  PM-------------------------------
  S S S S S S S S S S S S S S S S
|---------------------------------|
|---------------------------------|
|---------------------------------|
|---------------------------------|
|---------------------------------|
|-3-3-3-3-3-3-3-3-3-3-3-3-3-3-3-3-|


  1.,2.,3.                            4.
  N.C.                                N.C.                    B5
 -----------------------------------------------------------|
  S S S S S S S S S S S S S S S S  4x S S S S S S S S S S S S Q
|----------------------------------||------------------------------|
|---------------------------------o||------------------------------|
|----------------------------------||------------------------------|
|----------------------------------||------------------------------|
|-6-6-6-6-7-7-6-6-4-6-4-4---------o||-6-6-6-6-7-7-6-6---------9----|
|-------------------------7-7-6-6--||-----------------9-7-6-6-7----|


    N.C.
      PM------------------------|
    E S S S S S S S S S S S S S S
||--------------------------------|
||o-------------------------------|
||--------------------------------|
||--6-----------------------------|
||o---5-5-5-5-5-5-5-5-5-5-5-5-5-5-|
||--------------------------------|


    PM--------|   PM--------|     PM--------|   PM--------|
  E S S S S S S E S S S S S S   E S S S S S S E S S S S S S
|-----------------------------|------------------------------|
|-----------------------------|------------------------------|
|-----------------------------|------------------------------|
|-7-------------6-------------|------------------------------|
|---5-5-5-5-5-5---5-5-5-5-5-5-|-7-------------8--------------|
|-----------------------------|---6-6-6-6-6-6---6-6-6-6-6-6--|


                                        Pre-Chorus 2
  1.                        2.160
                            N.C.         (G#)
                           3/4          4/4
    PM--------|             ~            PM----------------------------|
  E S S S S S S E E E E     H    E E     S S S S S S S S S S S S S S S S
|------------------------||----------||----------------------------------|
|-----------------------o||----------||o---------------------------------|
|------------------------||----------||----------------------------------|
|------------------------||----------||----------------------------------|
|-7-------------8---8---o||-7----7---||o---------------------------------|
|---6-6-6-6-6-6---6---6--||--------5-||--4-4-4-4-4-4-4-4-4-4-4-4-4-4-4-4-|


  (G)                     N.C.  (G#)
  PM--------------------|       PM-------------------------------
  S S S S S S S S S S S S E E   S S S S S S S S S S S S S S S S
|-----------------------------|---------------------------------|
|-----------------------------|---------------------------------|
|-----------------------------|---------------------------------|
|-----------------------------|---------------------------------|
|-------------------------7---|---------------------------------|
|-3-3-3-3-3-3-3-3-3-3-3-3---5-|-4-4-4-4-4-4-4-4-4-4-4-4-4-4-4-4-|


  1.
  (G)             (E)     N.C.
 -----------------------|
  S S S S S S S S S S S S E E
|-------------------------------||
|------------------------------o||
|-------------------------------||
|-------------------------------||
|-------------------------7----o||
|-3-3-3-3-3-3-3-3-0-0-0-0---5---||


  2.
  (G)             (E)
  S S S S S S S S S S S S S S S S
|---------------------------------|
|---------------------------------|
|---------------------------------|
|---------------------------------|
|---------------------------------|
|-3-3-3-3-3-3-3-3-0-0-0-0-0-0-0-0-|


    Q=194
    N.C.
      PM------------------------|     PM--------|   PM--------|
    E S S S S S S S S S S S S S S   E S S S S S S E S S S S S S
||--------------------------------|-------------------------------|
||o-------------------------------|-------------------------------|
||--------------------------------|-------------------------------|
||--6-----------------------------|-7-------------6---------------|
||o---5-5-5-5-5-5-5-5-5-5-5-5-5-5-|---5-5-5-5-5-5---5-5-5-5-5-5---|
||--------------------------------|-------------------------------|


                                1.                        2.160
    PM--------|   PM--------|     PM--------|             ~~
  E S S S S S S E S S S S S S   E S S S S S S E E E E     H.      E E
|-----------------------------|------------------------||-------------|
|-----------------------------|-----------------------o||-------------|
|-----------------------------|------------------------||-------------|
|-----------------------------|------------------------||-------------|
|-7-------------8-------------|-7-------------8---8---o||-7-------7---|
|---6-6-6-6-6-6---6-6-6-6-6-6-|---6-6-6-6-6-6---6---6--||-----------5-|


    (G#)
    PM-------------------------------
    S S S S S S S S S S S S S S S S
||----------------------------------|
||o---------------------------------|
||----------------------------------|
||----------------------------------|
||o---------------------------------|
||--4-4-4-4-4-4-4-4-4-4-4-4-4-4-4-4-|


  (G)                     N.C.  (G#)
 -----------------------|       PM----------------------------|
  S S S S S S S S S S S S E E   S S S S S S S S S S S S S S S S
|-----------------------------|----------------------------------|
|-----------------------------|----------------------------------|
|-----------------------------|----------------------------------|
|-----------------------------|----------------------------------|
|-------------------------7---|----------------------------------|
|-3-3-3-3-3-3-3-3-3-3-3-3---5-|-4-4-4-4-4-4-4-4-4-4-4-4-4-4-4-4--|


  1.                              2.
  (G)             (E)     N.C.    (G)
                                 2/4
  PM--------------------|
  S S S S S S S S S S S S E E     S S S S S S S S
|------------------------------||-----------------||
|-----------------------------o||-----------------||
|------------------------------||-----------------||
|------------------------------||-----------------||
|-------------------------7---o||-----------------||
|-3-3-3-3-3-3-3-3-0-0-0-0---5--||-3-3-3-3-3-3-3-3-||


  Q=130
  E5
 4/4
  W          +W           W          +W
|----------|------------|----------|--------|
|----------|------------|----------|--------|
|----------|------------|----------|--------|
|-2--------|-(2)--------|-2--------|-(2)----|
|-2--------|-(2)--------|-2--------|-(2)----|
|-0--------|-(0)--------|-0--------|-(0)----|


   Chorus 1
                                                            To Coda
    G5    F5    G5      F5    B5 Bb5  G5    F5    G5      F5    G#5G5
      PM|   PM|   PM--|   PM|           PM|   PM|   PM--|   PM|
    E E E E E E E E   E E E E Q  Q    E E E E E E E E   E E E E Q  Q    4x
||------------------|---------------|-----------------|-----------------||
||o-----------------|---------------|-----------------|----------------o||
||------------------|---------------|-----------------|-----------------||
||------------------|---------------|-----------------|-----------------||
||o-5-----3-----5---|---3-----9--8--|-5-----3-----5---|---3-----6--5---o||
||--3-0-0-1-0-0-3-0-|-0-1-0-0-7--6--|-3-0-0-1-0-0-3-0-|-0-1-0-0-4--3----||


   Chorus 2
    Q.=98
   12/8
    Gtr I
     T       T       T       T       T       T       T       T       T       T       T       T
     |---------3----------|  |---------3----------|  |---------3----------|  |---------3----------|
     S  S S  S  S S  S  S S  S  S S  S  S S  S  S S  S  S S  S  S S  S  S S  S  S S  S  S S  S  S S
||--14p10p7-14p10p7-14p10p7-14p10p7-14p10p7-14p10p7-15p11p8-15p11p8-15p11p8--------------------------|
||o-------------------------------------------------------------------------15p11p8-15p11p8-15p11p8--|
||---------------------------------------------------------------------------------------------------|
||---------------------------------------------------------------------------------------------------|
||o--------------------------------------------------------------------------------------------------|
||---------------------------------------------------------------------------------------------------|
|
|   Gtr II
|    T       T       T       T       T       T       T       T       T       T       T       T
|    |---------3----------|  |---------3----------|  |---------3----------|  |---------3----------|
|    S  S S  S  S S  S  S S  S  S S  S  S S  S  S S  S  S S  S  S S  S  S S  S  S S  S  S S  S  S S
||---------------------------------------------------------------------------------------------------|
||o-12p=8p5-12p=8p5-12p=8p5-12p=8p5-12p=8p5-12p=8p5-13p=9p6-13p=9p6-13p=9p6--------------------------|
||--------------------------------------------------------------------------12p=8p5-12p=8p5-12p=8p5--|
||---------------------------------------------------------------------------------------------------|
||o--------------------------------------------------------------------------------------------------|
||---------------------------------------------------------------------------------------------------|


   T       T       T       T       T       T       T       T       T       T       T       T
   |---------3----------|  |---------3----------|  |---------3----------|  |---------3----------|
   S  S S  S  S S  S  S S  S  S S  S  S S  S  S S  S  S S  S  S S  S  S S  S  S S  S  S S  S  S S
|---------------------------------------------------------------------------------------------------||
|-16p12p9-16p12p9-16p12p9-16p12p9-16p12p9-16p12p9-16p12p9-16p12p9-16p12p9-16p12p9-16p12p9-16p12p9--o||
|---------------------------------------------------------------------------------------------------||
|---------------------------------------------------------------------------------------------------||
|--------------------------------------------------------------------------------------------------o||
|---------------------------------------------------------------------------------------------------||
|
|  T       T       T       T       T       T       T       T       T       T       T       T
|  |---------3----------|  |---------3----------|  |---------3----------|  |---------3----------|
|  S  S S  S  S S  S  S S  S  S S  S  S S  S  S S  S  S S  S  S S  S  S S  S  S S  S  S S  S  S S
|---------------------------------------------------------------------------------------------------||
|--------------------------------------------------------------------------------------------------o||
|-13p=9p6-13p=9p6-13p=9p6-13p=9p6-13p=9p6-13p=9p6-13p=9p6-13p=9p6-13p=9p6-13p=9p6-13p=9p6-13p=9p6---||
|---------------------------------------------------------------------------------------------------||
|--------------------------------------------------------------------------------------------------o||
|---------------------------------------------------------------------------------------------------||


     T       T       T       T       T       T       T       T       T       T       T       T
     |---------3----------|  |---------3----------|  |---------3----------|  |---------3----------|
     S  S S  S  S S  S  S S  S  S S  S  S S  S  S S  S  S S  S  S S  S  S S  S  S S  S  S S  S  S S
||--15p11p8-15p11p8-15p11p8-15p11p8-15p11p8-15p11p8-16p12p9-16p12p9-16p12p9-------------------------|
||o-------------------------------------------------------------------------16p12p9-16p12p9-16p12p9-|
||--------------------------------------------------------------------------------------------------|
||--------------------------------------------------------------------------------------------------|
||o-------------------------------------------------------------------------------------------------|
||--------------------------------------------------------------------------------------------------|
|
|    T       T       T       T       T       T       T       T       T       T       T       T
|    |---------3----------|  |---------3----------|  |---------3----------|  |---------3----------|
|    S  S S  S  S S  S  S S  S  S S  S  S S  S  S S  S  S S  S  S S  S  S S  S  S S  S  S S  S  S S
||--------------------------------------------------------------------------------------------------|
||o-13p=9p6-13p=9p6-13p=9p6-13p=9p6-13p=9p6-13p=9p6-14p10p7-14p10p7-14p10p7-------------------------|
||--------------------------------------------------------------------------13p=9p6-13p=9p6-13p=9p6-|
||--------------------------------------------------------------------------------------------------|
||o-------------------------------------------------------------------------------------------------|
||--------------------------------------------------------------------------------------------------|


   T        T        T        T        T        T        T        T        T        T        T        T
   |-----------3-----------|  |-----------3-----------|  |-----------3-----------|  |-----------3-----------|
   S  S  S  S  S  S  S  S  S  S  S  S  S  S  S  S  S  S  S  S  S  S  S  S  S  S  S  S  S  S  S  S  S  S  S  S
|---------------------------------------------------------------------------------------------------------------||
|-17p13p10-17p13p10-17p13p10-17p13p10-17p13p10-17p13p10-17p13p10-17p13p10-17p13p10-17p13p10-17p13p10-17p13p10--o||
|---------------------------------------------------------------------------------------------------------------||
|---------------------------------------------------------------------------------------------------------------||
|--------------------------------------------------------------------------------------------------------------o||
|---------------------------------------------------------------------------------------------------------------||
|
|  T        T        T        T        T        T        T        T        T        T        T        T
|  |-----------3-----------|  |-----------3-----------|  |-----------3-----------|  |-----------3-----------|
|  S  S  S  S  S  S  S  S  S  S  S  S  S  S  S  S  S  S  S  S  S  S  S  S  S  S  S  S  S  S  S  S  S  S  S  S
|---------------------------------------------------------------------------------------------------------------||
|--------------------------------------------------------------------------------------------------------------o||
|-14p10p=7-14p10p=7-14p10p=7-14p10p=7-14p10p=7-14p10p=7-14p10p=7-14p10p=7-14p10p=7-14p10p=7-14p10p=7-14p10p=7---||
|---------------------------------------------------------------------------------------------------------------||
|--------------------------------------------------------------------------------------------------------------o||
|---------------------------------------------------------------------------------------------------------------||


 Solo: Schuldiner
  (F#)
  Gtr III
                               ~~~~~~~~~~~~~~~~~
                                                               |---3---|
   H.                          Q            +E     +Q          S  S    S
|-14---------------------------------------------------------------------|
|-17b19-----------------------17b19========(17)---(17)r-------14-17---17-|
|------------------------------------------------------------------------|
|------------------------------------------------------------------------|
|------------------------------------------------------------------------|
|------------------------------------------------------------------------|
|
| Gtrs I, II
|  PM---------------------------------------------------------------------
|  S    S S S S S S S S S S S  S     S S S   S  S   S   S S S  S    S
|------------------------------------------------------------------------|
|------------------------------------------------------------------------|
|------------------------------------------------------------------------|
|------------------------------------------------------------------------|
|------------------------------------------------------------------------|
|--2----2-2-2-2-2-2-2-2-2-2-2--2-----2-2-2---2--2---2---2-2-2--2----2----|


  (C#)                                                  (A)             (C)
                                                                         ~~~~~
   |---3---|                 |---3---|  |---3---|
   S  S    S  S  S  S  T  T  S  S    S  S  S    S  S  S  Q.              Q           S  S
|-14-16---14----14-16-14-14-17-14---14-14-17---14-16-14-17b19-----------17b19-------17-16----|
|------------17------------------------------------------------------------------------------|
|--------------------------------------------------------------------------------------------|
|--------------------------------------------------------------------------------------------|
|--------------------------------------------------------------------------------------------|
|--------------------------------------------------------------------------------------------|
|
|--------------------------------------------------------------------------------------|
|  S    S     S  S  S  S     S    S     S    S     S  S  S    S S S S S  S    S S S  S  S
|--------------------------------------------------------------------------------------------|
|--------------------------------------------------------------------------------------------|
|--------------------------------------------------------------------------------------------|
|--------------------------------------------------------------------------------------------|
|--4----4-----4--4--4--4-----4----4-----4----4-----4--4------------------3----3-3-3--3--3----|
|--------------------------------------------------------5----5-5-5-5-5----------------------|


  (F#)
               |---3---|  |---3---|        |---3---|  |---3---|  |---3---|  |---3---|  |---3---|  |---3---|  |---3---|
   S  S  S  S  S  S    S  S  S    S  S  S  S  S    S  S  S    S  S  S    S  S  S    S  S  S    S  S  S    S  S  S    S
|-16-17-16-14----------------------------------------------------------------------------------------------------------|
|-------------17-17---16-17-16---14-13-14-16-14---13-------------------------------------------------------------------|
|----------------------------------------------------14-13---13-12------------14---13-11---------14-13---11------------|
|------------------------------------------------------------------14---13-11------------14---13------------14-13---11-|
|----------------------------------------------------------------------------------------------------------------------|
|----------------------------------------------------------------------------------------------------------------------|
|
|  PM-------------------------------------------------------------------------------------------------------------|
|  S  S  S  S  S    S     S    S     S  S  S    S     S    S     S    S     S    S     S    S     S    S     S    S
|----------------------------------------------------------------------------------------------------------------------|
|----------------------------------------------------------------------------------------------------------------------|
|----------------------------------------------------------------------------------------------------------------------|
|----------------------------------------------------------------------------------------------------------------------|
|----------------------------------------------------------------------------------------------------------------------|
|--2--2--2--2--2----2-----2----2-----2--2--2----2-----2----2-----2----2-----2----2-----2----2-----2----2-----2----2----|


  (C#)                                                 (A)           (C)
                                                        ~~~
   |------------7:6------------|  |---3---|
   S  S    S    S    S    S    S  S  S    S  S  S  S S  H.
|--------------------------------------------------------------------------------|
|--------------------------------------------------------------------------------|
|--------------------------------------------------------------------------------|
|-14-13---11---14---13---11s==10-10h11p==10--------------------------------------|
|-------------------------------------------12-12p11p9-11------------------------|
|--------------------------------------------------------------------------------|
|
|  PM--------------------------------------------------------------------------|
|  S    S    S    S    S    S     S    S     S  S  S S  S  S S S S S S S S S S S
|--------------------------------------------------------------------------------|
|--------------------------------------------------------------------------------|
|--------------------------------------------------------------------------------|
|--------------------------------------------------------------------------------|
|--4----4----4----4----4----4-----4----4-----4--4--4-4---------------3-3-3-3-3-3-|
|-------------------------------------------------------5--5-5-5-5-5-------------|


  (F#)
  E    E    E    E    E    E    E    E    E    E    E    E
|------------------------------------------------------------|
|------------------------------------------------------------|
|------------------------------------------------------------|
|---------------10---11---13---14---13---11---10-------------|
|-9---11---12--------------------------------------12---11---|
|------------------------------------------------------------|
|
| PM----------------------------------------------------------
| S S  S S  S S  S S  S S  S S  S S  S S  S S  S S  S S  S S
|------------------------------------------------------------|
|------------------------------------------------------------|
|------------------------------------------------------------|
|------------------------------------------------------------|
|------------------------------------------------------------|
|-2-2--2-2--2-2--2-2--2-2--2-2--2-2--2-2--2-2--2-2--2-2--2-2-|


  (C#)                         (A)            (C)
                                               ~~~
  E    E    E    E    E    E    E    E    E    Q.
|-----------------------------------------------------------|
|-----------------------------------------------------------|
|-----------------------------------------------------------|
|---------------10---11---13---14---13---11---13------------|
|-9---11---12-----------------------------------------------|
|-----------------------------------------------------------|
|
|---------------------------------------------------------|
| S S  S S  S S  S S  S S  S S  S S  S S  S S  S  S S S S S
|-----------------------------------------------------------|
|-----------------------------------------------------------|
|-----------------------------------------------------------|
|-----------------------------------------------------------|
|-4-4--4-4--4-4--4-4--4-4--4-4-----------------3--3-3-3-3-3-|
|-------------------------------5-5--5-5--5-5---------------|


  (F#)
  Gtr III
                                     ~~~
  S  S  S S  S  S  S  S  S  S  S  S  H.
|-------------------------------------------------------------|
|-----------------------------14-15-14------------------------|
|-----------------10-11-13-14---------------------------------|
|---------9-11-12---------------------------------------------|
|-9-11-12-----------------------------------------------------|
|-------------------------------------------------------------|
|
| Gtr V
|                                    ~~~
| S  S  S S  S  S  S  S  S  S  S  S  H.
|-------------------------------------------------------------|
|-------------------------------------------------------------|
|------------------------------6--7--6------------------------|
|------------------3--4--6--7---------------------------------|
|---------2--4--5---------------------------------------------|
|-2--4--5-----------------------------------------------------|
|
| Gtrs I, II
| PM-----------------------------------------------------------
| S  S  S S  S  S  S  S  S  S  S  S  S  S S S S S S S S S S S
|-------------------------------------------------------------|
|-------------------------------------------------------------|
|-------------------------------------------------------------|
|-------------------------------------------------------------|
|-------------------------------------------------------------|
|-2--2--2-2--2--2--2--2--2--2--2--2--2--2-2-2-2-2-2-2-2-2-2-2-|


  (C#)                          (A)           (C)
                                 ~~~
   E    E    E    E    E    E    H.
|-13---14---16---17---16---14---16------------------------||
|---------------------------------------------------------||
|---------------------------------------------------------||
|---------------------------------------------------------||
|---------------------------------------------------------||
|---------------------------------------------------------||
|
|                                ~~~
|  E    E    E    E    E    E    H.
|---------------------------------------------------------||
|---------------------------------------------------------||
|-10---11---13---14---13---11---13------------------------||
|---------------------------------------------------------||
|---------------------------------------------------------||
|---------------------------------------------------------||
|
|-------------------------------------------------------|
|  S S  S S  S S  S S  S S  S S  S  S S S S S S S S S S S
|---------------------------------------------------------||
|---------------------------------------------------------||
|---------------------------------------------------------||
|---------------------------------------------------------||
|--4-4--4-4--4-4--4-4--4-4--4-4---------------3-3-3-3-3-3-||
|--------------------------------5--5-5-5-5-5-------------||


 Solo: Murphy
  (E)
  Gtr IV
                                            |-----------7:6------------|
  Q.            Q.            Q.            S  S   S     S   S     S   S
|------------------------------------------------------------------------|
|------------------------------------------------------------------------|
|------------------------------------------------------------------------|
|-------------------------------------------5h=7p==5h====7p==5h====7---9-|
|------------------------------------------------------------------------|
|------------------------------------------------------------------------|
|
| Gtr V
|               \3______________________________________________|
| Q.           +H.                         +E        +E        +E
|------------------------------------------------------------------------|
|------------------------------------------------------------------------|
|------------------------------------------------------------------------|
|------------------------------------------------------------------------|
|------------------------------------------------------------------------|
|-0------------(0)-------------------------(0)-------(0)-------(0)-------|
|
| Gtrs I, II
| PM----------------------------------------------------------------------
| S  S S S S S  S   S S S S S S  S S S S S  S    S    S    S    S    S
|------------------------------------------------------------------------|
|------------------------------------------------------------------------|
|------------------------------------------------------------------------|
|------------------------------------------------------------------------|
|------------------------------------------------------------------------|
|-0--0-0-0-0-0--0---0-0-0-0-0-0--0-0-0-0-0--0----0----0----0----0----0---|


  (G)                              (Bb)             (F)
                                   ~~~~~~~~
  Q.              +E    +E     S S E   +E    a  E    +E     +E    S S
|------------------------------------------------------------------------|
|------------------------------------------------------------------------|
|------------------------------------------------------------------------|
|-9b10============(9)---(9)r---9p7-9---(9)---9s10---(10)---(10)---9p7----|
|------------------------------------------------------------------------|
|------------------------------------------------------------------------|
|
| W.
|------------------------------------------------------------------------|
|------------------------------------------------------------------------|
|------------------------------------------------------------------------|
|------------------------------------------------------------------------|
|------------------------------------------------------------------------|
|------------------------------------------------------------------------|
|
|-------------------------------------------------------------------|
| S     S S S S S  S  S  S   S S S S S  S  S    S S   S  S   S  S S S
|------------------------------------------------------------------------|
|------------------------------------------------------------------------|
|------------------------------------------------------------------------|
|------------------------------------------------------------------------|
|----------------------------------1-1--1--1----1-1----------------------|
|-3-----3-3-3-3-3--3--3--3---3-3-3--------------------1--1---1--1-1-1----|


  (E)
  Gtr IV
  ~~                           ~~~          PM-------|
  Q.           +E.     S S  S  Q.           E    E    E
|---------------------------------------------------------|
|---------------------------------------------------------|
|---------------------------------------------------------|
|-9------------(9)-----7-9-10-12------------9---10---12---|
|---------------------------------------------------------|
|---------------------------------------------------------|
|
| Gtrs I, II
| PM-------------------------------------------------------
| S  S S S S S  S  S S S S  S  S  S S S S S S S  S S  S S
|---------------------------------------------------------|
|---------------------------------------------------------|
|---------------------------------------------------------|
|---------------------------------------------------------|
|---------------------------------------------------------|
|-0--0-0-0-0-0--0--0-0-0-0--0--0--0-0-0-0-0-0-0--0-0--0-0-|


  (G)                                (Bb)              (F)
                    ~~                      ~~~~~~~~~~~~~~~~
  E    E    E    a  E    +E     S  S  S  S  E    +E     +Q.
|---------------------------------------------------------------------|
|---------------------------------------------------------------------|
|-9---11---12---12s14---(14)---12p11-12p11----------------------------|
|------------------------------------------14---(14)---(14)-----------|
|---------------------------------------------------------------------|
|---------------------------------------------------------------------|
|
|-------------------------------------------------------------------|
| S S  S S  S S     S S   S  S  S  S  S  S  S S   S  S   S  S S S S S
|---------------------------------------------------------------------|
|---------------------------------------------------------------------|
|---------------------------------------------------------------------|
|---------------------------------------------------------------------|
|-------------------------------------1--1--1-1---1--1----------------|
|-3-3--3-3--3-3-----3-3---3--3--3--3---------------------1--1-1-1-1-1-|


  (E)
  Gtr IV
   ~~~
                                     |---3---|  |---3---|
   E.     S  S  S  S  S  S  S  S  S  S  S    S  S  S    S  S  S S  S S  S S  S
|-14h====15p14p12--------------------------------------------------------------|
|-----------------15-13-12-15-13-12--------------------------------------------|
|-----------------------------------14p12p==11-14p12p==11-12p11-9h11p9----9----|
|----------------------------------------------------------------------12---12-|
|------------------------------------------------------------------------------|
|------------------------------------------------------------------------------|
|
| Gtr V
|  W.
|------------------------------------------------------------------------------|
|------------------------------------------------------------------------------|
|------------------------------------------------------------------------------|
|------------------------------------------------------------------------------|
|------------------------------------------------------------------------------|
|------------------------------------------------------------------------------|
|
| Gtrs I, II
|  PM---------------------------------------------------------------------------
|  S S S  S  S  S  S  S  S  S  S  S  S    S     S    S     S  S S  S S  S S  S
|------------------------------------------------------------------------------|
|------------------------------------------------------------------------------|
|------------------------------------------------------------------------------|
|------------------------------------------------------------------------------|
|------------------------------------------------------------------------------|
|--0-0-0--0--0--0--0--0--0--0--0--0--0----0-----0----0-----0--0-0--0-0--0-0--0-|


  (G)                                  (Bb)         (F)
                                       ~~~~~~~~~~~~~~~~~
              |--3---|
   S  S  S S  S S    S S  S  S S  S  S Q.           +E    +E     S  S
|------------------------------------------------------------------------|
|------------------------------------------------------------------------|
|------------------------------------------------------------------------|
|-10h12p10p9h10p9------9-------------------------------------------------|
|-------------------12---12p10p9---------------------------------7-10----|
|--------------------------------12p10-8------------(8)---(8)------------|
|
|  H.                                  Q.            Q           S  S
|------------------------------------------------------------------------|
|------------------------------------------------------------------------|
|------------------------------------------------------------------------|
|-------------------------------------------------------------------9----|
|---------------------------------------------------------------10-------|
|------------------------------------------------------------------------|
|
|------------------------------------------------------------------|
|  S  S  S S  S   S    S  S  S S  S  S S  S S S S S  S  S  S  S  S  S
|------------------------------------------------------------------------|
|------------------------------------------------------------------------|
|------------------------------------------------------------------------|
|------------------------------------------------------------------------|
|--------------------------------------1--1-1-1-1-1----------------------|
|--3--3--3-3--3---3----3--3--3-3--3--3---------------1--1--1--1--1--1----|


  (E)
                            ~~~~~~~~~~~~~~~~~~~~~~~~~~
  E    S S S S S S S S  S S H.
|----------------------------------------------------|
|----------------8---8h12p8--------------------------|
|----------9---9---9--------9------------------------|
|-9------9---9---------------------------------------|
|-----10---------------------------------------------|
|----------------------------------------------------|
|
|                           ~~
| E    S S S S S S S S  S S H.
|----------------7---7h10p7--------------------------|
|----------8---8---8--------8------------------------|
|-7------7---7---------------------------------------|
|------9---------------------------------------------|
|----------------------------------------------------|
|----------------------------------------------------|
|
| PM--------------------------------------------------
| S S  S S S S S S S S  S S S  S S S S S S S S S S S
|----------------------------------------------------|
|----------------------------------------------------|
|----------------------------------------------------|
|----------------------------------------------------|
|----------------------------------------------------|
|-0-0--0-0-0-0-0-0-0-0--0-0-0--0-0-0-0-0-0-0-0-0-0-0-|


                                            D.S. al Coda           &
  (G)                                (Bb)           (F)            E5
                                                                  4/4
 ~~~~~~~~~~~~                 ~~~~~~~~~~~~
    E    +E     E    S  S  S  E.      +H.                          W
|-/19---(19)---15-----------------------------------------------||----------*|
|-------------------17------------------------------------------||----------*|
|----------------------16---------------------------------------||----------*|
|-------------------------17p14------(14)-----------------------||----------*|
|---------------------------------------------------------------||----------*|
|---------------------------------------------------------------||----------*|
|
|                             ~~~~~~~~~~~~
|   E    +E     E    S  S  S  E.      +H.                          W
|-/15---(15)---12-----------------------------------------------||----------*|
|-------------------14------------------------------------------||----------*|
|----------------------12---------------------------------------||----------*|
|-------------------------14p11------(11)-----------------------||----------*|
|---------------------------------------------------------------||----------*|
|---------------------------------------------------------------||----------*|
|
|-------------------------------------------------------------|
|   S S   S  S  S S  S  S  S  S  S S   S  S S S S S S S S S S S    Q  H.
|---------------------------------------------------------------||----------*|
|---------------------------------------------------------------||----------*|
|---------------------------------------------------------------||----------*|
|---------------------------------------------------------------||----------*|
|--------------------------------------1--1-1-1-1-1-------------||-2--------*|
|---3-3---3--3--3-3--3--3--3--3--3-3----------------1-1-1-1-1-1-||-0--------*|



Duration Legend
---------------
W - whole; H - half; Q - quarter; E - 8th; S - 16th; T - 32nd; X - 64th; a - acciaccatura
+ - note tied to previous; . - note dotted; .. - note double dotted
Uncapitalized letters represent notes that are staccato (1/2 duration)
Irregular groupings are notated above the duration line
Duration letters will always appear directly above the note/fret number it represents the
duration for.  Duration letters with no fret number below them represent rests.  Multi-
bar rests are notated in the form Wxn, where n is the number of bars to rest for.  Low
melody durations appear below the staff

Tablature Legend
----------------
 h   - hammer-on
 p   - pull-off
 b   - bend
 pb  - pre-bend
 r   - bend release (if no number after the r, then release immediately)
 /\  - slide into or out of (from/to "nowhere")
 s   - legato slide
 S   - shift slide
 - natural harmonic
[n]  - artificial harmonic
n(n) - tapped harmonic
 ~   - vibrato
 tr  - trill
 T   - tap
 TP  - trem. picking
 PM  - palm muting
\n/  - tremolo bar dip; n = amount to dip
 \n  - tremolo bar down
 n/  - tremolo bar up
/n\  - tremolo bar inverted dip
 =   - hold bend; also acts as connecting device for hammers/pulls
 <> - volume swell (louder/softer)
 x   - on rhythm slash represents muted slash
 o   - on rhythm slash represents single note slash

Misc Legend
-----------
 |  - bar
||  - double bar
||o - repeat start
o|| - repeat end
*|  - double bar (ending)
 :  - bar (freetime)
 $  - Segno
 &  - Coda
Tempo markers -  = BPM(8/16=s8/s16), where s8 = swing 8ths, s16 = swing 16ths

Tap to rate this tab
# A B C D E F G H I J K L M N O P Q R S T U V W X Y Z