Song name
# A B C D E F G H I J K L M N O P Q R S T U V W X Y Z

Death - Evil Dead tab

-------------------------------------------------------------------------------
			     Evil Dead - Death
-------------------------------------------------------------------------------
Tabbed by:Greg M

 Death is incredible. R.I.P Chuck

Gtr. 1: (D G C F A D)
Gtr. 2: (D G C F A D) 

Intro
d|------------------------------------------------------------------------|
A|---17------13-17-13------17-----13-17-13-----17-----13-17-13-----17-----|
F|-14--14-16----------16-14--14-16--------16-12--12-16--------16-12--12-16|Gtr.1
C|------------------------------------------------------------------------|
G|------------------------------------------------------------------------|
D|------------------------------------------------------------------------|
 |                                                                            
 |
d|------------------------------------------------------------------------|
A|------------------------------------------------------------------------|
F|------------------------------------------------------------------------|Gtr.2
C|---7----------------------------------------5---------------------------|
G|---7----------------------------------------5---------------------------|
D|---5----------------------------------------3---------------------------|

d|------------------------------------------------------------------------|
A|13-17-13----17----13-17-13----17----13-17-13----17----13-17-13----17----|
F|--------16------16--------16------16--------16------16--------16------16|Gtr.1
C|----------15--15------------15--15------------14--14------------14--14--|
G|------------------------------------------------------------------------|
D|------------------------------------------------------------------------|
 |                                                                            
 |
d|------------------------------------------------------------------------|
A|------------------------------------------------------------------------|
F|------------------------------------------------------------------------|Gtr.2
C|----------3------------------------------------2------------------------|
G|----------3------------------------------------2------------------------|
D|----------1------------------------------------0------------------------|

Play that all twice.the ending is played after the second time,as shown below
d|-------------|-----------------------------------------------------------|
A|13-17-13-----|--14tr16-14-16-14~-----------------------------------------|
F|---------16--|-----------------------------------------------------------|Gtr.1
C|-------------|-----------------------------------------------------------|
G|-------------|-----------------------------------------------------------|
D|-------------|-----------------------------------------------------------|
 
Riff 1  : repeat however many times
d|------------------------------------------------------------------------|
A|-------5----6-----4h5---------------------------------------------------|
F|-------2----3-----0h2---------------------------------------------------|
C|-------2----3-----0h2---------------------------------------------------|
G|--00000-0000-00000------------------------------------------------------|
D|-/12\-------------------------------------------------------------------|

Riff 2: repeat                 |      end this riff on
d|-----------------------------|-------------------------------------------|
A|-3-5--6-8-6--5---------------|-------------------------------------------|
F|-2-4--5-7-5--4---------------|-------------------------------------------|
C|-0-2--3-5-3--2---------------|--7-5-4-2----------------------------------|
G|-----------------------------|--5-3-2-0----------------------------------|
D|-----------------------------|-------------------------------------------|


| /  slide up
| \  slide down
| h  hammer-on
| p  pull-off
| ~  vibrato
| +  harmonic
| x  Mute note
===============================================================================
Tap to rate this tab
# A B C D E F G H I J K L M N O P Q R S T U V W X Y Z