Song name
# A B C D E F G H I J K L M N O P Q R S T U V W X Y Z

Decemberists - Sons And Daughters tab

All comments are appreciated!
rumse2@comcast.net
Mike from Chicago


The song is a repetition of D and G chords. Below is the song and the tab for the words.

--0-0--------------0-0--------------0-0---0---0-2-4--0-0---0---0-2-4---0-|
------0-2-2-0---0------0-2-2-0---0------0---0------------0---0-----------|
--------------2----------------2-----------------------------------------|
-------------------------------------------------------------------------|
-------------------------------------------------------------------------|
-------------------------------------------------------------------------|


CHORUS
D               G
When we arrive, sons & daughters
D               G
We'll make our homes on the water
D               G
We'll build our walls aluminum
D               G
We'll fill our lives with cinnamon now

D               G
These currents pull us 'cross the border
D               G
Steady your boats, arms to shoulder
D               G
'till tides are pulled, hold our grounds
D               G
Making this cold harbor now home

D               G
Take up your arm, sons and daughters
D               G
We will arise from the bunkers
D               G
By land, by sea, by dirrigible
D               G
We'll leave our tracks untraceable now

D               G
When arrive, sons and daughters
D               G
We'll make our lives on the water
D               G
We'll build our walls aluminum
D               G
We'll fill our mouths cinnamon

D               G
When we arrive, sons and daughters
D               G
We'll make our homes on the water
D               G
We'll build our walls aluminum
D               G
We'll fill our mouths cinnamon

D               G
Here all the bombs fade away
D               G
Here all the bombs fade away
D               G
Here all the bombs fade away
D               G
Here all the bombs fade away


This is the solo guitar heard in the beginning of the song and again towards the end.


D                 G

---2---2-2---2--|---3---3-3---3------------------------------------|
----------------|--------------------------------------------------|
-2---2------2---|-4---4-----4--------------------------------------|
----------------|--------------------------------------------------|
----------------|--------------------------------------------------|
----------------|--------------------------------------------------|
Tap to rate this tab
 
# A B C D E F G H I J K L M N O P Q R S T U V W X Y Z