Song name
# A B C D E F G H I J K L M N O P Q R S T U V W X Y Z

Decemberists - Sons And Daughters tab

e|---2---2--2----------|
B|-----3-----3---------|
G|--------2------------|
D|-0-------------------|     Hold a D chord an play this
A|---------------------|
E|---------------------|

e|---3---3---3---------|
B|-----3-------3-------|
G|---------0-----------|
D|---------------------|     Hold a G chord
A|---------------------|
E|-3-------------------|

This is close, though i'm not sure if perfect. Definitely these chords though. Guitar 
D and G throughout song.
Tap to rate this tab
# A B C D E F G H I J K L M N O P Q R S T U V W X Y Z